FINAL GT6 2016 STORAGETRUNKS GT500 BASE SERIES-Monday Nights 18:30UKFinished 

3,866
United Kingdom
Essex UK
LOGICLINE

FINAL GT6 2016 STORAGETRUNKS SERIES

20160928_142947.jpg


SERIES BY LOGICLINE & IRT_NISSMANR32
--------------------------------
SC430 / GT-R / HSV Series

Clean & Fair Drivers only on Monday Nights

Race Sarts at 18.30 UK for 90 Minutes

]16 Rounds with 5 Dropped sores
------------------------------------------
To All Drivers Welcome.

Please read the Info Below
-------------------------------------------
PSN FRIEND
Please ensure you PSN FRIEND me LOGICLINE and others in this series.
I will then send you an invite to our community club lobby where our races are held on Mondays.
Once i have invited you to the community Club you will be able to join our club room.
We often practice in this lobby during the week with the room set to public,
however on Monday Race nights the room is club members only.
Our community club lobby ID is 1016608

FOLLOW ME
Also ensure you follow me
by clicking on my STEPHEN VANN profile picture on the left
then clicking on the follow label.
It is also a good idea to follow other drivers in the series on this forum.

WATCH THREAD
Also ensure you click the Watch Thread label at the top left of this page.

THREAD ALERTS
Click on the Alerts label at the top right of this page,
then on Alert Preferences and tick all boxes.
You will then be alerted to any forum news and new postings.

RULES & REGS
Make sure you read all the rules & regs on page 1 of this thread.

CLEAR CASHE
With full rooms on race nights it is good practice to CLEAR CASHE on GT6
To do this go to the main game screen press start / network / clear system cashe option.
Also for a better connection it is a good idea to restart your router before starting the game.
We also encourage people to use wired connections rather than wifi connections to stop lag.

ON RACE NIGHT

PLEASE ENSURE BEFORE YOU JOIN THE NEW RACE LOBBY
YOUR CAR HAS CORRECT SETUP & TYRES
YOU HAVE RESTARTED YOUR ROUTER
RESTARTERD PSN
CLEARED CASHE
COME STRAIGHT INTO THE CLUB RACE LOBBY
GO STRAIGHT TO THE PITBOX
DO NOT LEAVE THE PITBOX UNTIL TOLD
DO NOT ENTER THE TRACK UNTIL TOLD
AND NOT LEAVE UNTIL AFTER THE RACE
ONCE THE RACE HAS STARTED NO ENTRY TO THE RACE LOBBY
NO MESSAGES DURING THE RACE UNDER ANY CIRCUMSTANCES

Event organisers have the right to change any rules or settings in the event of circumstances and fairness

----------------------------------------------------------------

01 - PRACTICE
02 - GROUPS & CAR SPECS[/B]
03 - RULES REGULATIONS & PENALTIES
04 - LIVE QUALIFYING SETTINGS & PROCEDURE
05 - RACE ROOM SETTINGS
06 - RACE NIGHT ENTERING ROOM PROCEDURE
07 - ROLLING START PROCEDURE
08 - DELAYS & POSTPONEMENT
09 - CHAMPIONSHIP POINTS SCORING
10 - DRIVERS HANDICAP PENALTIES
11 - CHAMPIONSHIP PRIZES
12 - CHAMPIONSHIP POINTS STANDINGS
13 - POINTS SCORED CHART
14 - RACE CALENDAR & RESULTS DETAILS
15 - DRIVER SIGNUPS
16 - SERIES SPOTTERS GUIDE
17 - TUNES & DRIVING GUIDES
18 - SPECS REGS AND OTHER SERIES UPDATES
19 - DRIVERS ABSENT FROM RACES
20 - RACE DIRECTORS COPY/PASTE NOTES

-------------------------------------


1: PRACTICE
Please practice as much as possible in our community club lobby on Public, as we can then recruit new entrants and also as practice with other club members helps us all become familiar with each other and they can help with car setups.
Ensure the room has the correct settings posted for the race.

Event organisers have the right to change any rules or settings in the event of circumstances and fairness


2: GROUPS & CAR SPECS
ALL GROUPS
Tyre's : RH or less
Nitrous : Prohibited
Vehicle Tuning : Allowed
Skid Recovery force : Prohibited
Active steering : Prohibited
Active Stability Management ASM : Available
Driving Line : Available
Traction control : Availablle
ABS : Available





HONDA HSV-010 GT Base Model '12.jpg

GROUP 3 CAR SPECS
HONDA HSV-010 GT Base Model '12
OIL CHANGE - NO STAGE TUNE - MID TURBO ONLY
MAX PP 602 PP - UNLESS HANDICAPPED
Max Power Limit 560Bhp - UNLESS HANDICAPPED
Weight 1100 Kg - UNLESS HANDICAPPED





NISSAN GT-R GT500 Base Model '08.jpg






GROUP 2 CAR SPECS
NISSAN GT-R GT500 Base Model '08
OIL CHANGE - NO STAGE TUNE - MID TURBO ONLY
MAX PP 598PP - UNLESS HANDICAPPED
Max Power Limit 540 Bhp - UNLESS HANDICAPPED
Weight 1100 Kg - UNLESS HANDICAPPED
LEXUS SC430 GT500 Base Model '08 .jpg

GROUP 1 CAR SPECS -
LEXUS SC430 GT500 BASE MODEL 08
OIL CHANGE - NO STAGE TUNE - MID TURBO ONLY
Max PP 595PP - UNLESS HANDICAPPED
Max Power Limit 520 Bhp - UNLESS HANDICAPPED
Weight 1100 Kg - UNLESS HANDICAPPED

Event organisers have the right to change any rules or settings in the event of circumstances and fairness.


3: RULES REGULATIONS & PENALTIES
Race Rules
The stewards spend many hours planning to make this series run as fair & smoothly as we can, for this we need your cooperation.

To post race incidents to be reviewed as follows.....

Race incidents must be reported on the forum within 24 hours of the race finishing.
These will be reviewed by only those stewards who are not in anyway involved.

Incident reports.
Any driver that has or witnesses any
contact / unfair aggressive / reckless / regular short cutting - with intent, that would be deemed unsportsmanlike and not a genuine mistake
can be reported on the forum within 24 hours of the race finish.

This must not be in any way to blame or explain, it will only ask the stewards to review.

This is the format of the report
-------------------------------
Incident between ? and ?
Lap ?
Turn ?
-------------------------------
Thats all.

This will allow the stewards to look without prejudice at the incident.
It will be important that stewards review and decide fair or foul within 48 hours of the race as
Penalties given may be reflected in a points penalty or a drop of places for the race start.
Incidents will be reviewed by the stewards and any penalties will be posted by Wednesday night.

When posting an incident report, please only do so if the outcome is worth reporting.
If the car that contacts you is out of control or contact is made unintentionally
then we cannot penalise the offending driver.
Only incidents where there is clearly Intent to overtake or bully without regard for the
other driver or generally driving in a manner that is deemed ungentlemanly or short cutting regularly.

Most of us are not mega fast, but we always try to be fair and that needs to be very important and understood.

The only exception to this rule will be made if a car is forced by another car outside or they are avoiding an accident.

If your car runs very wide and you have no momentum to rejoin the track without using the throttle you are permitted to do so if your car speed falls below 30mph 48kph and you can only then gain a speed of 30mph 48kph until 2 wheels are inside the track limits.

RACE RAGE QUIT WILL RESULT IN LOSS OF 1 DROPPED SCORE

RACE NO SHOW WILL RESULT IN LOSS OF 1 DROPPED SCORE

DRIVERS MUST NOT ENTER OR RE-ENTER THE ROOM UNTIL THE RACE HAS FINISHED

Any driver that does not adhere to the rules will face penalty points for each incident.

Pit Entry & Exit lines must also be adhered to at all times possible.

NO DRIVER MUST DRIVE IN THE REVERSE DIRECTION

This is a Zero contact series, as with damage on, even a little nudge can lead to a huge loss of time with damage.

All drivers will be expected to drive with due care and consideration to other drivers.
Bumping cars ahead and causing them to run wide or rubbing alongside cars and forcing them to run wide and gaining any advantage must be rectified by giving back any position gained.

Overtaking
It will be the responsibility of the overtaking driver to ensure there is no contact between cars at any time.
If a driver forces another car off the track by attempting an overtake and then leaves no room for the car being overtaken to continue will be penalised.
If a driver being overtaken clearly weaves or moves to block and causes contact there will be heavy penalties.
All drivers must ensure that they do all they can to avoid contact.
The driver ahead must always give room to a car that is 1/4 length or more alongside going into a corner.

All avoidable accidents reported will be reviewed and will points deducted at the stewards discretion.

Being lapped
Cars being lapped should always allow cars through to battle without interference.
Even if running at their pace, let them through then follow.
Drivers can unlap themselves if they feel they can pass and clear the leaders without interference.

:: GTP OLR Rules & Guidelines ::

TRACK LIMITS
We will be using GTP guidelines
Two wheels on or vertically in line with (when airborne) the track at All Times
Curb/Rumble/Ripple strips are part of the track

---------------------------------------------------------------------------------------
QUALIFY AND RACE PENALTIES

-----------------------------------------------------------------------------------

2 WHEELS MUST BE ON OR WITHIN THE TRACK LIMIT

PAINTED TRACK SIDE KERBS & TRACK EDGE WHITE LINES ARE PART OF TRACK

ALL OTHER AREAS ARE OUTSIDE TRACK LIMIT

------------------------------------------------------------------------------------
DURING QUALYFYING PENALTIES -

DIRTY - OUT OF TRACK LIMITS - LESS THAT A CAR WIDTH OUTSIDE
+1 Sec each time

EXTREME - OUT OF TRACK LIMITS - OVER A CAR WITH OUTSIDE
+ 2.5 Sec each time

Driving in the reverse direction voids the current lap and the following lap.
------------------------------------------------------------------------------

DURING RACE PENALTIES -

ANY TIME THAT YOU ARE OUT OF TRACK LIMITS -
YOU MUST TOUCH BRAKE PEDAL FOR 1 SEC TO AVOID A POST RACE PTS PENALTY.
SHOWING A BRAKE LIGHT WILL INDICATE TO OTHERS THE SELF PENALTY.

-----------------------------------------------------------------------------------------

Driver Points Penalties:

-- Drivers will be given reprimands for minor incidents. Three reprimands - 2 Championship Point Penalty

-- Cutting Pit Exit Line - 1 Championship Point Penalty

-- Over Aggressive Driving or Illegal Blocking - 2 Championship Point Penalty

-- Ignoring Blue Flags - 2 Championship Point Penalty

-- Running Another Car Off Track - 3 Championship Point Penalty (Depense on severity of incident)

-- Rejoining Track After an Off Without Regards To Oncoming Traffic - 3 Championship Point Penalty

-- Each Violations of Track limits - the driver must apply brakes for 1 second as a self penalty.
-- If he fails to do this he will get a 2 point Championship Points Penalty for each instance.

-- Ramming/Causing Avoidable Collision - Disqualification from Race Results or up to 10 Championship point penalty

2 WHEELS ON TRACK
CLEAN
2 WHEELS ON PAINTED KERB PIC5.jpg


2 WHEELS ON WHITE LINE
CLEAN
2 WHEELS ON WHITE LINE PIC2.jpg


4 WHEELS OUT OF TRACK
DIRTY - PENALTY + 1 Sec
4 WHEELS OUT OF TRACK PIC3.jpg


4 WHEELS OUT OF TRACK BY OVER CAR WIDTH
DIRTY EXTREME - PENALTY + 2.5 Sec
4 WHEELS OUT OF TRACK BY OVER CAR WIDTH PIC4.jpg


2 WHEELS ON PAINTED KERB
CLEAN
2 WHEELS ON PAINTED KERB PIC6.jpg


Event organisers have the right to change any rules or settings in the event of circumstances and fairness


4: LIVE QUALIFYING SETTINGS & PROCEDURE
ALTHOUGH YOU MAY RUN PRACTICE Q SESSIONS.
EACH DRIVER GETS ONLY 1 OFFICIAL ATTEMPT DECLARED BEFORE THE SESSION.


IN THE EVENT OF MORE THAN 16 DRIVERS IN THE SERIES
ONLY THE FASTSTEST 16 QULAY TIMES WILL GET INTO THE RACE.

Deadline for qualifying is 18:00 Uk Sundays prior to race.
Drivers must not drive in reverse of the track direction.
Officials Qualifying must be observed by other officials.
Drivers that do not post a qualy time
may start at the back of the grid -
entry will be in order of descending championship points standings.

Qualifying Procedure: ROOM SETUP

Qualifying Observering Officials
PSN: Logicline GTP: @Stephen Vann
PSN: IRT_NissmanR32 GTP: @nissman
PSN: DannyB_2jz GTP: @Danny Burke
PSN: DannyB013 GTP: @DannyB013
PSN: Gueven-zappelt GTP : @Gueven Art
PSN: Daniel1990-25 GTP: @Daniel199025
PSN: Gu1tar3rich GTP: @richroo
PSN: IRT_ColossosR33 GTP: @andp132
PSN: AUGHABLO GTP: @DrAug

Post to book your Live observed Qualifying - Closes 18:00 UK Sundays

ROOM SETTINGS
Room mode : Practice/Race
Room Privacy : Club Only
Room Comment : QUALY IN PROGRESS NO MESSAGING
Race Quality : 3 stars
Voice Chat : Disabled
Fixed Room Ownership : No
Max No of Participants : 16

TRACK SETTINGS
Track : ---
Weather at Start : ---
Time : ---
Time progression : ---
No of Laps : 5
Weather Changeabilty : ---
Surface Water at Start : ---

RACE SETTINGS
Hold Events Automatically : Disabled
Start Type : Grid Start
Grid Order : Fastest First
Boost : Off
Penalty : None
Tyre/Fuel Depletion : Normal
Grip Reduction Wet Track/Edge : Real
Min No of Pitstops : 0
Required Tyre Change : Off
Visible Damage : Off
Mechanical Damage : Light
Slipstream Strength : Real

CAR SELECTION METHOD
Car Selection Method : Garage
Car Filters : Filter by Manufacturer
Country : Japan
Manufactures : Honda Lexus Nissan

FILTER BY PERFORMANCE
PP Limit : 604
Max Power Limit : 570 Bhp
Minimum Weight : 1100Kg
Drivetrain : All
Tyres : Racing Hard or Less
Nitrous : Prohibited
Vehicle Tuning : No Limit

LIMIT DRIVING OPTIONS
Skid Force Recovery : Prohibited
Active Steering : Prohibited
Active Stability Management ASM : Available
Driving Line : Available
Traction Control : Available
ABS : Available

Q procedure:
After arranging with an official - the official will create a room with the exact settings above.
He will ensure the car spec is correct.
He will then allow only the Q driver to enter pitbox.


He will start the 5 Lap Race
The Driver then has
LAP 1 OUT LAP
3 FLYING TIMED LAPS
5TH LAP SLOW DOWN LAP.

THE OFFICIAL MUST
OBSERVE THE DRIVER THROUGHOUT THE FLYING LAPS
NOTE DOWN ANY TRACK LIMITS VIOLATIONS FOR EACH LAP
SAVE THE REPLAY IN CASE OF DISPUTE
ADD PENALTY TIME FOR EACH TRACK LIMIT VIOLATIONS PER LAP
POST THE BEST LAP FOR THE DRIVER ON THE FORUM
OTHER CLUB DRIVERS MAY BE PRESENT THROUGH THE SESSION
NO IN GAME MESSAGES THROUGHOUT THE WHOLE SESSION FROM ANYONE

Track Limits Time penalties
Each time per lap out of track limits -
incurs 1 second addition to time.

Each time per lap clearly more than a car width out of track limits -
incurs 2.5 sec addition to time.

Drivers who Q first with the same time take preference

Event organisers have the right to change any rules or settings in the event of circumstances and fairness


5: RACE ROOM SETTINGS
Race Room Settings
Room mode Practice/endurance race
Room Privacy Club only

Race quality 3 stars
Voice chat disabled
Fixed room ownership No
Max no pf Participants 16

Track Re Calender
weather at start % Re Calender
Time Re Calender
Time progression 1 Times
Weather changeability Re Calender

Race 90 Minutes
Start type Grid start
Grid order Fastest first
Boost Off
Penalty None
Tyre/Fuel depletion Normal
Grip reduction on wet track / track edge Real
Min No of Pitstops 0
Required tyre type change 0
Race finish delay 1m30s
Visible damage off
Mechanical Damage Light
Slipstream Strength Real
Car Selection Garage
Car filters Filter by Country Japan
Manufacturer HONDA NISSAN LEXUS

PP 604 PP
Max Power Limit 570 Bhp
Minimum Weight 1100Kg
Drive train Any
Tyre's RH or less
Nitrous Prohibited
Vehicle Tuning Allowed
Skid Recovery force Prohibited
Active steering Prohibited
Active Stability Management ASM Available
Driving Line Available
Traction control Availablle
ABS Available

Event organisers have the right to change any rules or settings in the event of circumstances and fairness


6: RACE NIGHT ENTERING ROOM PROCEDURE
A new race lobby after the host has made a full reset of his router and pan
and has cleared his cashe will be created at 18:15 Uk time on Monday night's Race night.
All drivers must only enter the Race room after they have also completed a full Reset.

Drivers must only enter and go to the pitbox.
Once a driver is in the pitbox he must not go into any settings.

The only exception for leaving is if he cannot see all other drivers,
after confirming with the host.
He will then be asked to leave the room and rejoin, once again going straight into the
Pitbox and waiting to be called onto the track for the formation lap to the grid.
Any driver that leaves the pitbox will get a penalty point deducted.

Event organisers have the right to change any rules or settings in the event of circumstances and fairness


7: ROLLING START PROCEDURE
The Race will be started once all drivers have been called out onto the grid in
qualification order.

When called out, each driver must drive slowly around the track and line up single file in the order called out.

When all drivers are in position the race will be started.

SPEED THROUGHOUT THE LAP 75 mph/ 120 kph

ALL CARS SHOULD TRY TO MAINTAIN 1 CAR LENGTH GAP

DRIVERS THAT FALL BEHIND MAY EXCEED THIS SPEED ONLY TO CATCH UP

GOING OVER THE START LINE ABSOLUTE MAX SPEED IS 75mph/120kph

EXCEEDING SPEED OVER THE LINE & USE TO GAIN ADVANTAGE
AND THEN PASSING ANOTHER DRIVER BEFORE TURN 1
-4 CHAMPIONSHIP POINTS WILL BE DEDUCTED

EXCESS SPEED OVER THE LINE X 3 IN A SEASON
WITHOUT PASSING ANOTHER DRIVER BEFORE TURN 1
-2 CHAMPIONSHIP POINTS WILL BE DEDUCTED


There must be no accelerating and heavy braking on the pace lap, it should be a very
smooth and very gradual increase in speed through the pace lap maintaining a 1 car length gap.

NO DRIVER CAN ENTER THE ROOM UNTIL THE RACE HAS FINISHED

Event organisers have the right to change any rules or settings in the event of circumstances and fairness


8: DELAYS & POSTPONEMENT
If a race has been delayed by more than 30 minutes -
caused by server or connection issues it can be postponed, Cancelled or Rerun at a later date.

Event organisers have the right to change any rules or settings in the event of circumstances and fairness


9: CHAMPIONSHIP POINTS SCORING
Pole: 1 Point

Fastest Race Lap: 1 Point

RACE POINTS AWARDED
-1st place = 25 points
-2nd place = 20 points
-3rd place = 18 points
-4th place = 16 points
-5th place = 14 points
-6th place = 12 points
-7th place = 10 points
-8th place = 9 points
-9th place = 8 points
10th place = 7 points
11th place = 6 points
12th place = 5 points
13th place = 4 points
14th place = 3 points
15th place = 2 points
16th place = 1 point


Drivers with equal points will be as follows.

Highest Pts scored at any EVENT -
[ includes fastest lap and pole pts at event ]

if still equal

then next Highest pts scored at any EVENT -
[ includes fastest lap and pole pts at event ]

if still equal
Continues as above..............


DC,s
If a driver Dc's after 50% race time has elapsed [45:00 min]
he will still be accredited championship pts as last place or if more than 1 Dc in order of Dc

RACE RAGE QUIT WILL RESULT IN LOSS OF 1 DROPPED SCORE

RACE NO SHOW WILL RESULT IN LOSS OF 1 DROPPED SCORE

Event organisers have the right to change any rules or settings in the event of circumstances and fairness


10: DRIVERS HANDICAP PENALTIES
To try to keep the championship points as close as possible,
The stewards committee will will discuss and vote to change any drivers car setting
on a permanent basis to ensure close and fair racing.

Ballast, Bhp changes will be fairly made and with race results as the deciding factor.

Also moving drivers to another group may be required to keep it fair.


Event organisers have the right to change any rules or settings in the event of circumstances and fairness


11: CHAMPIONSHIP PRIZES
Drivers prizes for final championship standings to paid by Amazon E vouchers

1st - £20 Amazon e voucher
--2nd -£15 Amazon e voucher
---3rd - £10 Amazon e voucher
----4th - £5 Amazon e voucher

Event organisers have the right to change any rules or settings in the event of circumstances and fairness
 
Last edited:
3,866
United Kingdom
Essex UK
LOGICLINE
12: Final Championship Points Standings

After week 16 of 16 weeks

P----PTS-------KG---BHP---PP--CAR--GROUP----DRIVER

01---237------1125--520--593--430----G1-YY---TRL_ERAZER
02---198------1125--520--593--430----G1------AUGHABLO
03---197------1100--520--593--GTR----G2------IRT_NISSMANR32
04---187------1100--550--600--HSV----G3------LOGICLINE
05---158------1100--540--598--GTR----G2------JFROD52
06---125------1100--520--593--GTR----G2------DANNYB013
07---123------1100--550--600--GTR----G2-YYP-CRAZYJOHNISHERE
08---109------1100--560--602--HSV----G3-Y----MONKEYWALL
09---098------1100--570--604--HSV----G3------GUEVEN-ZAPPELT
10---097------1100--540--598--GTR----G2------DANIEL1990
11---095------1100--550--600--GTR----G2------DELTAJULIETMIKE
12---087------1100--520--593--GTR----G2------IRT_COLOSSOSR33
13---085------1100--520--595--430----G1------GTRP_MIRIAL
14---074------1100--570--604--HSV----G3------GU1TAR3RICH
15---066------1100--550--600--HSV----G3------LETS_PARTY-1611
16---051------1100--520--595--430----G1------PAULTHEGREATGOLF
17---041------1100--525--594--GTR----G2------TNR_FILO
18---025------1100--540--598--GTR----G2------PHAEDRUSSOCRATES
19---012------1100--570--604--HSV----G3------T-n-T-2000
20---008------1100--570--604--HSV----G3------DANNYB_2JZ
21---006------1100--550--600--GTR----G2------MRRACINGLINE
22---005------1100--540--598--GTR----G2------I_MAXX_PAIN_I
23---002------1100--550--600--GTR----G2------STRETCHY-
24---000------1100--570--604--HSV----G3------PUR3DELETE

13: POINTS SCORED CHART
01---02---03---04---05---06---07---08--DRP--TOT---09---10---11---12---13---14---15---DRP---TOT---16---FINAL--DRIVER

20---18---18---26---21---27---10---25--46--119---14Y--25---12---18Y--21---16---20---026---217---20---237--TRL_ERAZER - YY -2

20---20---20---17---18---20---20---19--54--100---10---17---18---26---10---18---18---020---197---01---198--AUGHABLO

00---06---12---18---25---18---14---16--18--091---17---00---20---14---12---07---25---007---179---18---197--IRT_NISSMANR32

09---18---06---09---14---09---25---08--23--075---19---20---14---09---26---26---08---017---180---07---187--LOGICLINE

00---10---14---10---09---00---19---06--06--062---00---14---10---20---00---20---16---000---142---16---158--JFROD52

10---07---16---20---17---14---16---21--31--090---25---09---01---00---00---00---00---000---125---00---000--DANNYB013

14---00---02---05---10---00---00---14--00--045---08---06---26---07---06---14---03---009---097---26---123--CRAZYJOHNISHERE YYP -2-7

06---14---00---04---12---00---12---05--04--049---00---12---08---10---08---08---14---008---101---08---109--MONKEYWALL Y

08---08---05---08---08---08---07---09--20--041---09---07---16---00---00---09---06---000---088---10---098--GUEVEN-ZAPPELT

07---12---08---12---10---16---06---07--20--058---07---00---00---00---16---06---01---000---088---09---097--DANIEL1990

12---05---09---00---07---00---10---10--05--048---00---10---06---12---05---10---09---005---095---00---000--DELTAJULIETMIKE

00---00---00---00---00---00---00---12--00--012---20---09---04---16---18---00---12---004---087---00---000--IRT_COLOSSOSR33

00---00---00---14---12---00---04---00--00--030---12---00---05---09---07---05---10---005---073---12---085--GTRP_MIRIAL

04---09---07---06---00---00---08---04--04--034---06---00---07---06---09---12---05---005---074---00---000--GU1TAR3RICH

01---02---03---04---05---06---07---08--DRP--TOT---09---10---11---12---13---14---15---DRP---TOT---16---FINAL--DRIVER

00---00---00---00---00---00---00---00--000--000---00---18---09---00---14---03---08---000---052---14---066--LETS_PARTY-1611

25---00---26---00---00---00---00---00--00--051---00---00---00---00---00---00---00---000---051---00---000--PAULTHEGREATGOLF

16---25---00---00---00---00---00---00--00--041---00---00---00---00---00---00---00---000---041---00---000--TNR_FILO

00---00---11---07---07---00---00---00--00--025---00---00---00---00---00---00---00---000---025---00---000--PHAEDRUSSOCRATES

00---00---04---03---00---00---05---00--00--012---00---00---00---00---00---00---00---000---012---00---000--T-n-T-2000

05---00---03---00---00---00---00---00--00--008---00---00---00---00---00---00---00---000---008---00---000--DANNYB_2JZ

00---00---00---00---00---00---00---00--000--000---00---00---00---00---00---02---04---000---006---00---000--MRRACINGLINE

00---00---00---00---00---00---00---00--000--000---00---00---00---00---00---05---00---000---005---00---000--I_MAXX_PAIN_I

00---00---00---02---00---00---00---00--00--002---00---00---00---00---00---00---00---000---002---00---000--STRETCHY-

00---00---00---00---00---00---00---00--000--000---00---00---00---00---00---00---00---000---000---00---000--PUR3DELETE


01---02---03---04---05---06---07---08--DRP--TOT---09---10---11---12---13---14---15---DRP---TOT---16---FINAL--DRIVER


--------------------------------------------------------------------------------------------------------------------------------------------

00---00---00---00---00---00---00---00--000--000---00---00---00---00---00---00---00---000---000---00---000--

01---02---03---04---05---06---07---08--DRP--TOT---09---10---11---12---13---14---15---DRP---TOT---16---FINAL--DRIVER

Event organisers have the right to change any rules or settings in the event of circumstances and fairness
 
Last edited:
3,866
United Kingdom
Essex UK
LOGICLINE
14: RACE CALENDAR & RESULTS DETAILS

-----------------------------------------------

RACE 1 - MON 25 JULY - DRY RACE
Brands Hatch Gp Circuit
1st: PAULTHEGREATGOLF
--2nd: TRL_ERAZER
---3rd: AUGHABLO
--Pole: AUGHABLO
-F Lap: AUGHABLO

2.43 miles Forward/weather & time variable
Race Race starts at game time 12:00

------------------------------------

RACE 1 RESULTS

POS---PTS------KG----BHP---CAR--GROUP--DRIVER

01-----25------1100---520---430----G1-----PAULTHEGREATGOLF
02-----20------1100---520---430----G1-----TRL_ERAZER
03-----18-+2--1100---520---430----G1-----AUGHABLO
04-----16------1100---540---GTR----G2-----TNR_FILO
05-----14------1100---540---GTR----G2-----CRAZYJOHNISHERE
06-----12------1100---540---GTR----G2-----DELTAJULIETMIKE
07-----10------1100---520---430----G1-----DANNYB013
08-----09------1100---550---HSV----G3-----LOGICLINE
09-----08------1100---550---HSV----G3-----GUEVEN-ZAPPELT
10-----07------1100---540---GTR----G2-----DANIEL1990
11-----06------1100---550---HSV----G3-----MONKEYWALL
12-----05------1100---550---HSV----G3-----DANNYB_2JZ
13-----04------1100---550---HSV----G3-----GU1TAR3RICH
14-----00------1100---520---430----G1-----IRT_NISSMANR32

Fastest Race Lap: Lap 52 AUGHABLO 1.17.956

-------------------------------------------------

RACE 1 RESULTS QUALIFYING

-----Q--TIME--P0S--PTS-------KG----BHP---CAR---GROUP--DRIVER

01 - 1:18.585--00--000------1100---520---430----G1-----AUGHABLO
02 - 1:19.123--00--000------1100---550---HSV----G3-----MONKEYWALL
03 - 1:19.127--00--000------1100---540---GTR----G2-----DELTAJULIETMIKE
04 - 1:19.230--00--000------1100---550---HSV----G3-----LOGICLINE
05 - 1:19.280--00--000------1100---520---430----G1-----PAULTHEGREATGOLF
06 - 1:19.589--00--000------1100---540---GTR----G2-----DANIEL1990
07 - 1:19.629--00--000------1100---520---430----G1-----TRL_ERAZER
08 - 1:19.779--00--000------1100---540---GTR----G2-----CRAZYJOHNISHERE
09 - 1:19.969--00--000------1100---550---HSV----G3-----GUEVEN-ZAPPELT
10 - 1:20.508--00--000------1100---550---HSV----G3-----DANNYB_2JZ
11 - 1:20.863--00--000------1100---550---HSV----G3-----GU1TAR3RICH
12 - 1:20.961--00--000------1100---520---430----G1-----DANNYB013
13 - 0:00.000--00--000------1100---540---GTR----G2-----TNR_FILO

----------------------------------------------------------------------

RACE TIMING

AFTER 5 MIN
R1 5.jpg




AFTER 20 MIN
R1 20.jpg




AFTER 40 MIN
R1 40.jpg



AFTER 60 MIN
R1 60.jpg




AFTER 80 MIN
R1 80.jpg




AFTER 90 MIN
R1 90.jpg




FINISH
R1 F.jpeg


------------------------------------

PICTURES

R1 P1.jpg


R1 P2.jpg


R1 P3.jpg


R1 P4.jpg


R1 P5.jpg


R1 P6.jpg


R1 P7.jpg


R1 P8.jpg

-----------------------------------------------


RACE 2 - MON 1 AUG - DRY RACE
Daytona Road Course
1st: TNR_FILO
--2nd: AUGHABLO
---3rd: LOGICLINE
--Pole: TRL_ERAZER
-F Lap: TRL_ERAZER

3.56 miles Forward weather/time variable
Race starts at game time 12:00

Narrow Pit Exit must be used at all times
------------------------------------

RACE 2 RESULTS

POS---PTS------KG----BHP---CAR--GROUP--DRIVER

01------25------1100---540---GTR----G2-----TNR_FILO
02------20------1100---520---430----G1-----AUGHABLO
03------18------1100---550---HSV----G3-----LOGICLINE
04------16-+2--1100---520---430----G1-----TRL_ERAZER
05------14------1100---550---HSV----G3-----MONKEYWALL
06------12------1100---540---GTR----G2-----DANIEL1990
07------10------1100---540---GTR----G2-----JFROD52
08------09------1100---550---HSV----G3-----GU1TAR3RICH
09------08------1100---550---HSV----G3-----GUEVEN-ZAPPELT
10------07------1100---520---430----G1-----DANNYB013
11------06------1100---520---430----G1-----IRT_NISSMANR32
12------05------1100---540---GTR----G2-----DELTAJULIETMIKE

Fastest Race Lap: Lap 51 TRL_ERAZER 1.39.481

-------------------------------------------------

RACE 2 RESULTS QUALIFYING

-----Q--TIME--P0S--PTS-------KG----BHP---CAR---GROUP--DRIVER

01 -1:40.269--02--020------1100---520---430----G1-----TRL_ERAZER
02 -1:40.461--08--009------1100---550---HSV----G3-----LOGICLINE
03 -1:40.585--11--006------1100---550---HSV----G3-----MONKEYWALL
04 -1:40.865--04--016------1100---540---GTR----G2-----TNR_FILO
05 -1:40.963--13--004------1100---550---HSV----G3-----GU1TAR3RICH
06 -1:40.981--10--007------1100---540---GTR----G2-----DANIEL1990
07 -1:41.209--01--025------1100---520---430----G1-----PAULTHEGREATGOLF
08 -1:41.266--05--014------1100---540---GTR----G2-----CRAZYJOHNISHERE
09 -1:41.341--06--012------1100---540---GTR----G2-----DELTAJULIETMIKE
10 -1:41.366--03--020------1100---520---430----G1-----AUGHABLO
11 -1:41.454--07--010------1100---520---430----G1-----DANNYB013
12 -1:41.518--14--000------1100---520---430----G1-----IRT_NISSMANR32
13 -1:41.619--09--008------1100---550---HSV----G3-----GUEVEN-ZAPPELT
14 -1:41.785--00--000------1100---540---GTR----G2-----JFROD52
15 -1:41.905--12--005------1100---550---HSV----G3-----DANNYB_2JZ

----------------------------------------------------------------------

RACE TIMING

AFTER 5 MIN
R2 5.jpg




AFTER 20 MIN
R2 20.jpg




AFTER 40 MIN
R2 40.jpg




AFTER 60 MIN
R2 60.jpg




AFTER 80 MIN
R2 80.jpg




AFTER 88 MIN
R2 88.jpg




AFTER 91 MIN
R2 91.jpg




FINISH
R2 F.jpg


-----------------------------------

PICTURES
PIC1.jpg


R2 P2.jpg


R2 PIC WNNER.jpg

-----------------------------------------------
02-08-2016 HANDICAP ADJUSTMENTS MADE
NEW SPECS
--KG---BHP---PP--CAR--GROUP---DRIVER
1120--520--593--430----G1-----AUGHABLO
1120--520--593--430----G1-----TRL_ERAZER
1100--525--594--GTR----G2-----TNR_FILO
1100--525--594--GTR----G2-----DANNYB013
-----------------------------------------------

RACE 3 - MON 8 AUG - DRY RACE
Tokyo R246
1st: PAULTHEGREATGOLF
--2nd: AUGHABLO
---3rd: TRL_ERAZER
--Pole: PHAEDRUSSOCRATES
-F Lap: PAULTHEGREATGOLF

2.46 miles Time fixed 09:00

------------------------------------

RACE 3 RESULTS

POS---PTS------KG---BHP---PP--CAR--GROUP---DRIVER

01------25-+1--1100--520--595--430----G1-----PAULTHEGREATGOLF
02------20------1120--520--593--430----G1-----AUGHABLO
03------18------1120--520--593--430----G1-----TRL_ERAZER
04------16------1100--525--594--GTR----G2-----DANNYB013
05------14------1100--540--598--GTR----G2-----JFROD52
06------12------1100--520--595--430----G1-----IRT_NISSMANR32
07------10-+1--1100--540--598--GTR----G2-----PHAEDRUSSOCRATES
08------09------1100--540--598--GTR----G2-----DELTAJULIETMIKE
09------08------1100--540--598--GTR----G2-----DANIEL1990
10------07------1100--550--600--HSV----G3-----GU1TAR3RICH
11------06------1100--550--600--HSV----G3-----LOGICLINE
12------05------1100--550--600--HSV----G3-----GUEVEN-ZAPPELT
13------04------1100--550--600--HSV----G3-----T-n-T-2000
14------03------1100--550--600--HSV----G3-----DANNYB_2JZ
15------02------1100--540--598--GTR----G2-----CRAZYJOHNISHERE


Fastest Race Lap: Lap 39 PAULTHEGREATGOLF 1.32.279

-------------------------------------------------

RACE 3 QUALIFYING

-----Q--TIME-----P---PTS--------KG---BHP---PP--CAR--GROUP---DRIVER

01 -1:32.867---17---000------1100--540--598--GTR----G2-----PHAEDRUSSOCRATES
02 -1:32.933---07---019------1100--540--598--GTR----G2-----DANIEL1990
03 -1:32.979---03---038------1120--520--593--430----G1-----TRL_ERAZER
04 -1:32.985---12---013------1100--550--600--HSV----G3-----GU1TAR3RICH
05 -1:33.168---02---040------1120--520--593--430----G1-----AUGHABLO
06 -1:33.193---05---025------1100--520--595--430----G1-----PAULTHEGREATGOLF
07 -1:33.496---01---041------1100--525--594--GTR----G2-----TNR_FILO
08 -1:33.504---09---017------1100--525--594--GTR----G2-----DANNYB013
09 -1:33.569---04---027------1100--550--600--HSV----G3-----LOGICLINE
10 -1:33.637---14---006------1100--520--595--430----G1-----IRT_NISSMANR32
11 -1:33.642---08---017------1100--540--598--GTR----G2-----DELTAJULIETMIKE
12 -1:33.950---13---010------1100--540--598--GTR----G2-----JFROD52
13 -1:33.998---11---014------1100--540--598--GTR----G2-----CRAZYJOHNISHERE
14 -1:34.015---15---005------1100--550--600--HSV----G3-----DANNYB_2JZ
15 -1:34.063---10---016------1100--550--600--HSV----G3-----GUEVEN-ZAPPELT
16 -1:35.333---16---000------1100--550--600--HSV----G3-----T-n-T-2000

----------------------------------------------------------------------

RACE 3 TIMING

AFTER 5 MIN
R3 5.jpg




AFTER 20 MIN
R3 20.jpg




AFTER 40 MIN
R3 40.jpg




AFTER 60 MIN
R3 60.jpg




AFTER 80 MIN
R3 80.jpg




AFTER 89 MIN
R3 89.jpg




AFTER 92 MIN
R3 92.jpg




FINISH
R3 FIN.jpg


----------------------------------

PICTURES
R3 P1.jpg


R3 P2.jpg


R3 P3.jpg


R3 P4.jpg


R3 P5.jpg


R3 P6.jpg


R3 P7.jpg

-----------------------------------------------
09-08-2016 HANDICAP SPEC CHANGES
NEW SPECS
--KG---BHP---PP--CAR--GROUP---DRIVER
1125--520--593--430----G1-----AUGHABLO
1125--520--593--430----G1-----TRL_ERAZER
1125--520--593--430----G1-----PAULTHEGREATGOLF


10-08-2016 RULES ADDED
RACE RAGE QUIT WILL RESULT IN LOSS OF 1 DROPPED SCORE
RACE NO SHOW WILL RESULT IN LOSS OF 1 DROPPED SCORE
-----------------------------------------------

RACE 4 - MON 15 AUG - DRY RACE
Silverstone GP
1st: TRL_ERAZER
--2nd: DANNYB013
---3rd: IRT_NISSMANR32
--Pole: AUGHABLO
-F Lap: TRL_ERAZER

3.66 miles Forward weather/time variable

Race & Qualy starts at game time 12:00
Weather at start 0%
Time progression x1
Weather Changeability Fixed
Surface Water at Start 0%

-------------------------------------

RACE 4 RESULTS

POS---PTS------KG---BHP---PP--CAR--GROUP---DRIVER

01------25-+1--1125--520--593--430----G1-----TRL_ERAZER
02------20------1100--525--594--GTR----G2-----DANNYB013
03------18------1100--520--595--430----G1-----IRT_NISSMANR32
04------16-+1--1125--520--593--430----G1-----AUGHABLO
05------14------1100--520--595--430----G1-----GTRP_MIRIAL
06------12------1100--540--598--GTR----G2-----DANIEL1990
07------10------1100--540--598--GTR----G2-----JFROD52
08------09------1100--550--600--HSV----G3-----LOGICLINE
09------08------1100--550--600--HSV----G3-----GUEVEN-ZAPPELT
10------07------1100--540--598--GTR----G2-----PHAEDRUSSOCRATES
11------06------1100--550--600--HSV----G3-----GU1TAR3RICH
12------05------1100--540--598--GTR----G2-----CRAZYJOHNISHERE
13------04------1100--550--600--HSV----G3-----MONKEYWALL
14------03------1100--550--600--HSV----G3-----T-n-T-2000
15------02------1100--540--598--GTR----G2-----STRETCHY-

Fastest Race Lap: Lap 36 TRL_ERAZER 1.52.664

-------------------------------------------------

RACE 4 RESULTS QUALIFYING

-----Q--TIME-----P---PTS--------KG---BHP---PP--CAR--GROUP---DRIVER

01 - 1:53.689---01---060------1125--520--593--430----G1-----AUGHABLO
02 - 1:53.882---02---056------1125--520--593--430----G1-----TRL_ERAZER
03 - 1:53.918---06---033------1100--525--594--GTR----G2-----DANNYB013
04 - 1:53.963---13---018------1100--520--595--430----G1-----IRT_NISSMANR32
05 - 1:54.195---07---027------1100--540--598--GTR----G2-----DANIEL1990
06 - 1:54.269---11---020------1100--550--600--HSV----G3-----MONKEYWALL
07 - 1:54.309---20---000------1100--520--595--430----G1-----GTRP_MIRIAL
08 - 1:54.589---15---011------1100--540--598--GTR----G2-----PHAEDRUSSOCRATES
09 - 1:54.600---05---033------1100--550--600--HSV----G3-----LOGICLINE
10 - 1:54.627---19---000------1100--540--598--GTR----G2-----STRETCHY-
11 - 1:54.745---09---024------1100--540--598--GTR----G2-----JFROD52
12 - 1:54.915---10---021------1100--550--600--HSV----G3-----GUEVEN-ZAPPELT
13 - 1:55.443---14---016------1100--540--598--GTR----G2-----CRAZYJOHNISHERE
14 - 1:55.503---12---020------1100--550--600--HSV----G3-----GU1TAR3RICH
15 - 1:55.786---17---004------1100--550--600--HSV----G3-----T-n-T-2000
16 - 1:56.027---04---041------1100--525--594--GTR----G2-----TNR_FILO ABSENT
---------------------------------------------------------------------
17 - 1:54.755---08---026------1100--540--598--GTR----G2-----DELTAJULIETMIKE CANCELLED
18 - HOLIDAY---03---051------1125--520--593--430----G1-----PAULTHEGREATGOLF
19 - NO TIME---16---008------1100--550--600--HSV----G3-----DANNYB_2JZ
20 - NO TIME---18---000------1100--525--594--GTR----G2-----J_STARSCREAM
21 - NO TIME---21---000------1100--550--600--HSV----G3----JAMSY

----------------------------------------------------------------------

RACE 4 TIMING

START
R4 START.jpg





AFTER 10 MIN
R4 10M.jpg





AFTER 20 MIN
R4 20M.jpg





AFTER 30 MIN
R4 30M.jpg





AFTER 40 MIN
R4 40M.jpg





AFTER 50 MIN
R4 50M.jpg





AFTER 60 MIN
R4 60M.jpg





AFTER 70 MIN
R4 70M.jpg





AFTER 80 MIN
R4 80M.jpg





AFTER 88 MIN
R4 88M.jpg





AFTER 92 MIN
R4 92M.jpg





FINISH
R4 FIN.jpg


------------------------------------

PICTURES

R4 P5.jpg


R4 P1.jpg


R4 P3.jpg


R4 P4.jpg


R4 P2.jpg

-----------------------------------------------
16-08-2016 HANDICAP SPEC CHANGES
NEW SPECS
G---BHP---PP--CAR--GROUP---DRIVER

1100--520--593--GTR----G2-----DANNYB013

1100--520--593--GTR----G2-----IRT_NISSMANR32

KG---BHP---PP--CAR--GROUP---DRIVER
1100--560--602--HSV----G3-----ALL G3 DRIVERS

----------------------------------------------

21-08-2016 ADMIN CHANGES
ADDED TO OFFICIALS

PSN: GTRP_Mirial GTP: @mirial
-----------------------------------------------

RACE 5 - MON 22 AUG - DRY RACE
Mazda Raceway Laguna Seca
1st: IRT_NISSMANR32
--2nd: TRL_ERAZER
---3rd: AUGHABLO
--Pole: TRL_ERAZER
-F Lap: DANNYB013

Time fixed

-------------------------------------

RACE 5 RESULTS

POS---PTS-------KG---BHP---PP--CAR--GROUP---DRIVER

01------25------1100--520--593--GTR----G2-----IRT_NISSMANR32
02------20-+1--1125--520--593--430----G1-----TRL_ERAZER
03------18------1125--520--593--430----G1-----AUGHABLO
04------16-+1--1100--520--593--GTR----G2-----DANNYB013
05------14------1100--560--602--HSV----G3-----LOGICLINE
06------12------1100--520--595--430----G1-----GTRP_MIRIAL
07------10------1100--540--598--GTR----G2-----DANIEL1990
08------09------1100--540--598--GTR----G2-----JFROD52
09------08------1100--560--602--HSV----G3-----GUEVEN-ZAPPELT
10------07------1100--540--598--GTR----G2-----DELTAJULIETMIKE

Fastest Race Lap: Lap 64 DANNYB013 1.17.007

-------------------------------------------------

QUALIFYING RACE 5

-----Q--TIME-----P---PTS--------KG---BHP---PP--CAR--GROUP---DRIVER

01 - 1:17.436---01---082------1125--520--593--430----G1-----TRL_ERAZER
02 - 1:17.566---02---077------1125--520--593--430----G1-----AUGHABLO
03 - 1:17.854---16---014------1100--520--595--430----G1-----GTRP_MIRIAL
04 - 1:18.114---03---053------1100--520--593--GTR----G2-----DANNYB013
05 - 1:18.141---08---036------1100--520--593--GTR----G2-----IRT_NISSMANR32
06 - 1:18.233---13---024------1100--560--602--HSV----G3-----MONKEYWALL
07 - 1:18.384---05---042------1100--560--602--HSV----G3-----LOGICLINE
08 - 1:18.442---07---039------1100--540--598--GTR----G2-----DANIEL1990
09 - 1:18.460---11---026------1100--540--598--GTR----G2-----DELTAJULIETMIKE
10 - 1:18.501---10---029------1100--560--602--HSV----G3-----GUEVEN-ZAPPELT
11 - 1:18.551---09---034------1100--540--598--GTR----G2-----JFROD52

----------------------------------------------------------------------

RACE 5 TIMING

START
START.jpg





AFTER 5 MIN
R5 5.jpg





AFTER 10 MIN
R5 10.jpg





AFTER 20 MIN
R5 20.jpg





AFTER 30 MIN
R5 30.jpg





AFTER 40 MIN
R5 40.jpg





AFTER 50 MIN
R5 50.jpg





AFTER 60 MIN
R5 60.jpg





AFTER 70 MIN
R5 70.jpg





AFTER 80 MIN
R5 80.jpg





AFTER 88 MIN
R5 88.jpg





AFTER 92 MIN
R5 92.jpg





FINISH
R5 FIN.jpg


-----------------------------------

PICTURES

R5 PIC 1.jpg


R5 PIC 2.jpg


unnamedR5 PIC 4.jpg


R5 WIN.jpg

-----------------------------------------------
25-08-2016 RULES ADDED
7: ROLLING START PROCEDURE [ AMENDMENT ]
CARS ON PACE LAPS NOW TO HAVE A 1 CAR LENGTH GAP


25-08-2016 HANDICAP SPEC CHANGES
NEW SPECS UNTIL FURTHER NOTICE

-KG---BHP---PP--CAR--GROUP---DRIVER
1100--570---604---HSV----G3-----T-n-T-2000
1100--570---604---HSV----G3-----DANNYB_2JZ
1100--570---604---HSV----G3-----GUEVEN-ZAPPELT
1100--550---600---GTR----G2-----JFROD52
1100--550---600---GTR----G2-----DELTAJULIETMIKE
1100--550---600---GTR----G2-----STRETCHY-


28-08-16 AMENDEMENT TO PACE CAR LAP

SPEED THROUGHOUT THE LAP 75 mph/ 120 kph

ALL CARS SHOULD TRY TO MAINTAIN 1 CAR LENGTH GAP

DRIVERS THAT FALL BEHIND MAY EXCEED THIS SPEED ONLY TO CATCH UP

GOING OVER THE START LINE ABSOLUTE MAX SPEED IS 75mph/120kph

EXCEEDING SPEED OVER THE LINE & USE TO GAIN ADVANTAGE
AND THEN PASSING ANOTHER DRIVER BEFORE TURN 1
-4 CHAMPIONSHIP POINTS WILL BE DEDUCTED

EXCESS SPEED OVER THE LINE X 3 IN A SEASON
WITHOUT PASSING ANOTHER DRIVER BEFORE TURN 1
-2 CHAMPIONSHIP POINTS WILL BE DEDUCTED
-----------------------------------------------

RACE 6 - MON 29 AUG - DRY RACE
Cote d Azur
1st: TRL_ERAZER
--2nd: AUGHABLO
---3rd: IRT_NISSMANR32
--Pole: TRL_ERAZER
-F Lap: TRL_ERAZER

2.08 miles- forward - Time fixed 10:00

------------------------------------

RACE 6 RESULTS

POS---PTS--------KG---BHP---PP--CAR--GROUP---DRIVER

01------25-+2--1125--520--593--430----G1-----TRL_ERAZER
02------20------1125--520--593--430----G1-----AUGHABLO
03------18------1100--520--593--GTR----G2-----IRT_NISSMANR32
04------16------1100--540--598--GTR----G2-----DANIEL1990
05------14------1100--520--593--GTR----G2-----DANNYB013
06------12------1100--560--602--HSV----G3-----MONKEYWALL
07------10------1100--540--598--GTR----G2-----CRAZYJOHNISHERE
08------09------1100--560--602--HSV----G3-----LOGICLINE
09------08------1100--570--604--HSV----G3-----GUEVEN-ZAPPELT
10------07------1100--540--598--GTR----G2-----PHAEDRUSSOCRATES

Fastest Race Lap: Lap 23 TRL_ERAZER 1.25.133

-------------------------------------------------

RACE 6 QUALIFYING

-----Q--TIME-----P---PTS--------KG---BHP---PP--CAR--GROUP---DRIVER

01 -1:25.895---01---103------1125--520--593--430----G1-----TRL_ERAZER
02 -1:26.282---02---095------1125--520--593--430----G1-----AUGHABLO
03 -1:26.623---03---070------1100--520--593--GTR----G2-----DANNYB013
04 -1:26.861---04---061------1100--520--593--GTR----G2-----IRT_NISSMANR32
05 -1:27.471---07---049------1100--540--598--GTR----G2-----DANIEL1990
06 -1:27.538---05---056------1100--560--602--HSV----G3-----LOGICLINE
07 -1:27.726---14---024------1100--560--602--HSV----G3-----MONKEYWALL
08 -1:28.625---16---018------1100--540--598--GTR----G2-----PHAEDRUSSOCRATES
09 -1:29.913---10---037------1100--570--604--HSV----G3-----GUEVEN-ZAPPELT
10 -0:00.000---06---051------1125--520--593--430----G1-----PAULTHEGREATGOLF
11 -0:00.000---09---041------1100--525--594--GTR----G2-----TNR_FILO
12 -0:00.000---12---026------1100--520--595--430----G1-----GTRP_MIRIAL

13 -0:00.000---15---021------1100--540--598--GTR----G2-----CRAZYJOHNISHERE
14 -0:00.000---17---008------1100--570--604--HSV----G3-----DANNYB_2JZ
15 -0:00.000---19---002------1100--550--600--GTR----G2-----STRETCHY-


----------------------------------------------------------------------

RACE 6 TIMING

START
R6 ST.jpg





AFTER 5 MIN
R6 5.jpg





AFTER 10 MIN
R6 10.jpg





AFTER 20 MIN
R6 20.jpg





AFTER 30 MIN
R6 30.jpg





AFTER 40 MIN
R6 40.jpg





AFTER 50 MIN
R6 50.jpg





AFTER 60 MIN
R6 60.jpg





AFTER 70 MIN
R6 70.jpg





AFTER 80 MIN
R6 80.jpg





AFTER 88 MIN
R6 88.jpg





AFTER 92 MIN
R6 92.jpg





FINISH
R6 FIN.jpg


-----------------------------------

PICTURES
R6 P1.jpg


R6 P2.jpg


R6 P3.jpg

-----------------------------------------------------------
05-09-2016 HANDICAP SPEC CHANGES
-KG---BHP---PP--CAR--GROUP---DRIVER
1100--550--600--GTR----G2-----CRAZYJOHNISHERE
-----------------------------------------------------------

RACE 7 - MON 5 SEPT - DRY RACE
Grand Valley Speedway
1st: LOGICLINE
--2nd: AUGHABLO
---3rd: JFROD52
--Pole: JFROD52
-F Lap: TRL_ERAZER

3.07 miles- forward - Time fixed 11:10

------------------------------------

RACE 7 RESULTS

POS----PTS------KG---BHP---PP--CAR--GROUP---DRIVER

01------25------1100--560--602--HSV----G3-----LOGICLINE
02------20------1125--520--593--430----G1-----AUGHABLO
03------18-+1--1100--550--600--GTR----G2-----JFROD52
04------16------1100--520--593--GTR----G2-----DANNYB013
05------14------1100--520--593--GTR----G2-----IRT_NISSMANR32
06------12------1100--560--602--HSV----G3-----MONKEYWALL
07------10------1100--550--600--GTR----G2-----DELTAJULIETMIKE
08------09-+1--1125--520--593--430----G1-----TRL_ERAZER
09------08------1100--560--602--HSV----G3-----GU1TAR3RICH
10------07------1100--570--604--HSV----G3-----GUEVEN-ZAPPELT
11------06------1100--540--598--GTR----G2-----DANIEL1990
12------05------1100--570--604--HSV----G3-----T-n-T-2000
13------04------1100--520--595--430----G1-----GTRP_MIRIAL

Fastest Race Lap: Lap 20 TRL_ERAZER 1.41.859

-------------------------------------------------

QUALIFYING RACE 7

POS-Q--TIME-----P---PTS--------KG---BHP---PP--CAR--GROUP---DRIVER

01 - 1:42.642---09---043------1100--550--600--GTR----G2-----JFROD52
02 - 1:42.692---05---065------1100--560--602--HSV----G3-----LOGICLINE
03 - 1:42.747---04---079------1100--520--593--GTR----G2-----IRT_NISSMANR32
04 - 1:42.761---01---130------1125--520--593--430----G1-----TRL_ERAZER
05 - 1:42.814---06---065------1100--540--598--GTR----G2-----DANIEL1990
06 - 1:42.828---02---115------1125--520--593--430----G1-----AUGHABLO
07 - 1:42.856---15---026------1100--560--602--HSV----G3-----GU1TAR3RICH
08 - 1:42.856---03---084------1100--520--593--GTR----G2-----DANNYB013
09 - 1:42.906---11---036------1100--560--602--HSV----G3-----MONKEYWALL
10 - 1:42.980---12---033------1100--550--600--GTR----G2-----DELTAJULIETMIKE
11 - 1:43.072---18---007------1100--570--604--HSV----G3-----T-n-T-2000
12 - 1:43.315---00---000------1100--540--598--GTR----G2-----J_STARSCREAM
13 - 1:44.084---08---045------1100--570--604--HSV----G3-----GUEVEN-ZAPPELT
14 - 1:44.485---13---031------1100--540--598--GTR----G2-----CRAZYJOHNISHERE
15 - 0:00.000---14---026------1100--520--595--430----G1-----GTRP_MIRIAL

----------------------------------------------------------------------

RACE 7 TIMING

START
R7 ST.jpg





AFTER 5 MIN
R7 5.jpg





AFTER 10 MIN
R7 10.jpg





AFTER 20 MIN
R7 20.jpg





AFTER 30 MIN
R7 30.jpg





AFTER 40 MIN
R7 40.jpg





AFTER 50 MIN
R7 50.jpg





AFTER 60 MIN
R7 60.jpg





AFTER 70 MIN
R7 70.jpg





AFTER 80 MIN
R7 80.jpg





AFTER 88 MIN
R7 88.jpg




AFTER 92 MIN
R7 92.jpg





FINISH
R7 FIN.jpg


------------------------------------

PICTURES

R7 1.jpg


R7 PIC 2.jpg


R7 PIC 3.jpg


R7 PIC 4.jpg


R7 PIC 5.jpg


R7 PIC 6.jpg


R7 PIC 7.jpg


R7 PIC 8.jpg


R7 PIC 9.jpg


R7 PIC 10.jpg


R7 PIC 11.jpg

-----------------------------------------------

RACE 8 - MON 12 SEPT - WEATHER RACE
Suzuka Circuit 2014
1st: TRL_ERAZER
--2nd: DANNYB013
---3rd: AUGHABLO
--Pole: DANNYB013
-F Lap: AUGHABLO

5.807 Kkm - forward / weather / time variable
Race starts at game time 12:00

------------------------------------
RACE START ON RH
Race Weather: 30%
Time: 12.00
Time progression: X1
Weather changeability: X15
Surface water at start: 10%
------------------------------------
DRY FROM START TO 17 MIN
RAIN FROM 17 MIN TO 28 MIN
RAIN TRACK FROM 0% 28 MIN TO 100% 34 MIN
STAYS 100% UNTIL 70 MIN - RAINING
RAINING BUT TRACK DRIES FROM 100% TO 0% AT 76 MIN
0% RAINING UNTIL 80 MIN
DRY UNTIL END

------------------------------------

RACE 8 RESULTS

POS---PTS------KG---BHP---PP--CAR--GROUP---DRIVER

01------25------1125--520--593--430----G1-----TRL_ERAZER
02------20-+1--1100--520--593--GTR----G2-----DANNYB013
03------18-+1--1125--520--593--430----G1-----AUGHABLO
04------16------1100--520--593--GTR----G2-----IRT_NISSMANR32
05------14------1100--550--600--GTR----G2-----CRAZYJOHNISHERE
06------12------1100--520--593--GTR----G2-----IRT_COLOSSOSR33
07------10------1100--550--600--GTR----G2-----DELTAJULIETMIKE
08------09------1100--570--604--HSV----G3-----GUEVEN-ZAPPELT
09------08------1100--560--602--HSV----G3-----LOGICLINE
10------07------1100--540--598--GTR----G2-----DANIEL1990
11------06------1100--550--600--GTR----G2-----JFROD52
12------05------1100--560--602--HSV----G3-----MONKEYWALL
13------04------1100--560--602--HSV----G3-----GU1TAR3RICH

Fastest Race Lap: Lap 40 AUGHABLO 1.52.192

-------------------------------------------------

RACE 8 QUALIFYING

Q USE ANY TYRE
Qualy Weather: 30%
Time: 12.00
Time progression: X1
Weather changeability: Fixed
Surface water at start: 30%

p----Q--TIME-----P---PTS--------KG---BHP---PP--CAR--GROUP---DRIVER

01 - 1:55.621---03---100------1100--520--593--GTR----G2-----DANNYB013
02 - 1:55.752---01---140------1125--520--593--430----G1-----TRL_ERAZER
03 - 1:56.200---02---135------1125--520--593--430----G1-----AUGHABLO
04 - 1:56.421---06---071------1100--540--598--GTR----G2-----DANIEL1990
05 - 1:56.691---20---000------1100--520--593--GTR----G2-----IRT_COLOSSOSR33
06 - 1:56.759---13---034------1100--560--602--HSV----G3-----GU1TAR3RICH
07 - 1:56.963---10---048------1100--560--602--HSV----G3-----MONKEYWALL
08 - 1:56.978---07---062------1100--550--600--GTR----G2-----JFROD52
09 - 1:57.336---14---031------1100--550--600--GTR----G2-----CRAZYJOHNISHERE
10 - 1:57.441---08---052------1100--570--604--HSV----G3-----GUEVEN-ZAPPELT
11 - 1:58.062---11---043------1100--550--600--GTR----G2-----DELTAJULIETMIKE
12 - 1:58.979---05---090------1100--560--602--HSV----G3-----LOGICLINE
13 - 0:00.000---04---093------1100--520--593--GTR----G2-----IRT_NISSMANR32

----------------------------------------------------------------------

RACE 8 TIMING

START
R8 START.jpg





AFTER 5 MIN
R8 5.jpg





AFTER 10 MIN
R8 10.jpg





AFTER 20 MIN
R8 20.jpg





AFTER 30 MIN
R8 30.jpg





AFTER 40 MIN
R8 40.jpg





AFTER 50 MIN
R8 50.jpg





AFTER 60 MIN
R8 60.jpg





AFTER 70 MIN
R8 70.jpg





AFTER 80 MIN
R8 80.jpg





AFTER 88 MIN
R8 88.jpg





AFTER 92 MIN
R8 92.jpg





FINISH
R8 FIN.jpg


-----------------------------------

PICTURES

R8P1.jpg


R8P3.jpg


R8P4.jpg


R8P2.jpg

------------------------------------------------------------------

DROP 3 SCORES FROM RACES 1 - 8 & RECALCULATE PTS
ROUND 1 - 8 Championship Points Standings
BEFORE & AFTER 3 DROPPED RESULTS

Championship Points Standings
BEFORE 3 DROPPED RESULTS

After week 8 of 16 weeks

P----PTS-------KG---BHP---PP--CAR--GROUP---DRIVER

01---165------1125--520--593--430----G1-----TRL_ERAZER
02---154------1125--520--593--430----G1-----AUGHABLO
03---121------1100--520--593--GTR----G2-----DANNYB013
04---109------1100--520--593--GTR----G2-----IRT_NISSMANR32
05---098------1100--560--602--HSV----G3-----LOGICLINE
06---078------1100--540--598--GTR----G2-----DANIEL1990
07---068------1100--550--600--GTR----G2-----JFROD52
08---061------1100--570--604--HSV----G3-----GUEVEN-ZAPPELT
09---053------1100--560--602--HSV----G3-----MONKEYWALL
10---053------1100--550--600--GTR----G2-----DELTAJULIETMIKE
11---051------1125--520--593--430----G1-----PAULTHEGREATGOLF
12---045------1100--550--600--GTR----G2-----CRAZYJOHNISHERE
13---041------1100--525--594--GTR----G2-----TNR_FILO
14---038------1100--560--602--HSV----G3-----GU1TAR3RICH
15---030------1100--520--595--430----G1-----GTRP_MIRIAL
16---025------1100--540--598--GTR----G2-----PHAEDRUSSOCRATES
17---012------1100--520--593--GTR----G2-----IRT_COLOSSOSR33
18---012------1100--570--604--HSV----G3-----T-n-T-2000
19---008------1100--570--604--HSV----G3-----DANNYB_2JZ
20---002------1100--550--600--GTR----G2-----STRETCHY-

-------------------------------------------------------------

ROUND 1 - 8 POINTS SCORED CHART
BEFORE 3 DROPPED RESULTS

01---02---03---04---05---06---07---08--DRP--TOT---09---10---11---12---13---14---15---DRP---TOT---16---FINAL--DRIVER

20---18---18---26---21---27---10---25--000--000---00---00---00---00---00---00---00---000---000---00---000--TRL_ERAZER

20---20---20---17---18---20---20---19--000--000---00---00---00---00---00---00---00---000---000---00---000--AUGHABLO

10---07---16---20---17---14---16---21--000--000---00---00---00---00---00---00---00---000---000---00---000--DANNYB013

00---06---12---18---25---18---14---16--000--000---00---00---00---00---00---00---00---000---000---00---000--IRT_NISSMANR32

09---18---06---09---14---09---25---08--000--000---00---00---00---00---00---00---00---000---000---00---000--LOGICLINE

07---12---08---12---10---16---06---07--000--000---00---00---00---00---00---00---00---000---000---00---000--DANIEL1990

00---10---14---10---09---00---19---06--000--000---00---00---00---00---00---00---00---000---000---00---000--JFROD52

08---08---05---08---08---08---07---09--000--000---00---00---00---00---00---00---00---000---000---00---000--GUEVEN-ZAPPELT

06---14---00---04---12---00---12---05--000--000---00---00---00---00---00---00---00---000---000---00---000--MONKEYWALL

12---05---09---00---07---00---10---10--000--000---00---00---00---00---00---00---00---000---000---00---000--DELTAJULIETMIKE

01---02---03---04---05---06---07---08--DRP--TOT---09---10---11---12---13---14---15---DRP---TOT---16---FINAL--DRIVER

25---00---26---00---00---00---00---00--000--000---00---00---00---00---00---00---00---000---000---00---000--PAULTHEGREATGOLF

14---00---02---05---10---00---00---14--000--000---00---00---00---00---00---00---00---000---000---00---000--CRAZYJOHNISHERE YYP -2-7

16---25---00---00---00---00---00---00--000--000---00---00---00---00---00---00---00---000---000---00---000--TNR_FILO

04---09---07---06---00---00---08---04--000--000---00---00---00---00---00---00---00---000---000---00---000--GU1TAR3RICH

00---00---00---14---12---00---04---00--000--000---00---00---00---00---00---00---00---000---000---00---000--GTRP_MIRIAL

00---00---11---07---07---00---00---00--000--000---00---00---00---00---00---00---00---000---000---00---000--PHAEDRUSSOCRATES

00---00---00---00---00---00---00---12--000--000---00---00---00---00---00---00---00---000---000---00---000--IRT_COLOSSOSR33

00---00---04---03---00---00---05---00--000--000---00---00---00---00---00---00---00---000---000---00---000--T-n-T-2000

05---00---03---00---00---00---00---00--000--000---00---00---00---00---00---00---00---000---000---00---000--DANNYB_2JZ

00---00---00---02---00---00---00---00--000--000---00---00---00---00---00---00---00---000---000---00---000--STRETCHY-

01---02---03---04---05---06---07---08--DRP--TOT---09---10---11---12---13---14---15---DRP---TOT---16---FINAL--DRIVER

------------------------------------------------------------------

Championship Points Standings
AFTER 3 DROPPED RESULTS
After week 8 of 16 weeks

P----PTS-------KG---BHP---PP--CAR--GROUP---DRIVER

01---119------1125--520--593--430----G1-----TRL_ERAZER
02---100------1125--520--593--430----G1-----AUGHABLO
03---091------1100--520--593--GTR----G2-----IRT_NISSMANR32
04---090------1100--520--593--GTR----G2-----DANNYB013
05---075------1100--560--602--HSV----G3-----LOGICLINE
06---062------1100--550--600--GTR----G2-----JFROD52
07---058------1100--540--598--GTR----G2-----DANIEL1990
08---051------1125--520--593--430----G1-----PAULTHEGREATGOLF
09---049------1100--560--602--HSV----G3-----MONKEYWALL
10---048------1100--550--600--GTR----G2-----DELTAJULIETMIKE
11---045------1100--550--600--GTR----G2-----CRAZYJOHNISHERE
12---041------1100--525--594--GTR----G2-----TNR_FILO
13---041------1100--570--604--HSV----G3-----GUEVEN-ZAPPELT
14---034------1100--560--602--HSV----G3-----GU1TAR3RICH
15---030------1100--520--595--430----G1-----GTRP_MIRIAL
16---025------1100--540--598--GTR----G2-----PHAEDRUSSOCRATES
17---012------1100--520--593--GTR----G2-----IRT_COLOSSOSR33
18---012------1100--570--604--HSV----G3-----T-n-T-2000
19---008------1100--570--604--HSV----G3-----DANNYB_2JZ
20---002------1100--550--600--GTR----G2-----STRETCHY-

-------------------------------------------------------------

POINTS SCORED CHART
AFTER 3 DROPPED RESULTS

01---02---03---04---05---06---07---08--DRP--TOT---09---10---11---12---13---14---15---DRP---TOT---16---FINAL--DRIVER

20---18---18---26---21---27---10---25--46--119---00---00---00---00---00---00---00---000---000---00---000--TRL_ERAZER

20---20---20---17---18---20---20---19--54--100---00---00---00---00---00---00---00---000---000---00---000--AUGHABLO

00---06---12---18---25---18---14---16--18--091---00---00---00---00---00---00---00---000---000---00---000--IRT_NISSMANR32

10---07---16---20---17---14---16---21--31--090---00---00---00---00---00---00---00---000---000---00---000--DANNYB013

09---18---06---09---14---09---25---08--23--075---00---00---00---00---00---00---00---000---000---00---000--LOGICLINE

00---10---14---10---09---00---19---06--06--062---00---00---00---00---00---00---00---000---000---00---000--JFROD52

07---12---08---12---10---16---06---07--20--058---00---00---00---00---00---00---00---000---000---00---000--DANIEL1990

25---00---26---00---00---00---00---00--00--051---00---00---00---00---00---00---00---000---000---00---000--PAULTHEGREATGOLF

06---14---00---04---12---00---12---05--04--049---00---00---00---00---00---00---00---000---000---00---000--MONKEYWALL

12---05---09---00---07---00---10---10--05--048---00---00---00---00---00---00---00---000---000---00---000--DELTAJULIETMIKE

14---00---02---05---10---00---00---14--00--045---00---00---00---00---00---00---00---000---000---00---000--CRAZYJOHNISHERE

01---02---03---04---05---06---07---08--DRP--TOT---09---10---11---12---13---14---15---DRP---TOT---16---FINAL--DRIVER

16---25---00---00---00---00---00---00--00--041---00---00---00---00---00---00---00---000---000---00---000--TNR_FILO

08---08---05---08---08---08---07---09--20--041---00---00---00---00---00---00---00---000---000---00---000--GUEVEN-ZAPPELT

04---09---07---06---00---00---08---04--04--034---00---00---00---00---00---00---00---000---000---00---000--GU1TAR3RICH


00---00---00---14---12---00---04---00--00--030---00---00---00---00---00---00---00---000---000---00---000--GTRP_MIRIAL

00---00---11---07---07---00---00---00--00--025---00---00---00---00---00---00---00---000---000---00---000--PHAEDRUSSOCRATES

00---00---00---00---00---00---00---12--00--012---00---00---00---00---00---00---00---000---000---00---000--IRT_COLOSSOSR33

00---00---04---03---00---00---05---00--00--012---00---00---00---00---00---00---00---000---000---00---000--T-n-T-2000

05---00---03---00---00---00---00---00--00--008---00---00---00---00---00---00---00---000---000---00---000--DANNYB_2JZ

00---00---00---02---00---00---00---00--00--002---00---00---00---00---00---00---00---000---000---00---000--STRETCHY-

01---02---03---04---05---06---07---08--DRP--TOT---09---10---11---12---13---14---15---DRP---TOT---16---FINAL--DRIVER

------------------------------------------------------------------

RACE 9 - MON 19 SEPT - DRY RACE
Apricot Hill Raceway
1st: DANNYB013
--2nd: IRT_COLOSSOSR33
---3rd: LOGICLINE
--Pole: IRT_NISSMANR32
-F Lap: LOGICLINE

2.43 miles Forward weather/time variable
Race starts at game time 12:00

------------------------------------

RACE 9 RESULTS

POS---PTS------KG---BHP---PP--CAR--GROUP---DRIVER

01------25------1100--520--593--GTR----G2-----DANNYB013
02------20------1100--520--593--GTR----G2-----IRT_COLOSSOSR33
03------18-+1--1100--560--602--HSV----G3-----LOGICLINE
04------16-+1--1100--520--593--GTR----G2-----IRT_NISSMANR32
05------14------1125--520--593--430----G1-----TRL_ERAZER
06------12------1100--520--595--430----G1-----GTRP_MIRIAL
07------10------1125--520--593--430----G1-----AUGHABLO
08------09------1100--570--604--HSV----G3-----GUEVEN-ZAPPELT
09------08------1100--550--600--GTR----G2-----CRAZYJOHNISHERE
10------07------1100--540--598--GTR----G2-----DANIEL1990
11------06------1100--560--602--HSV----G3-----GU1TAR3RICH

Fastest Race Lap: Lap 33 LOGICLINE 1.12.835

-------------------------------------------------

RACE 9 QUALIFYING

P----Q--TIME-----P---PTS--------KG---BHP---PP--CAR--GROUP---DRIVER

01 - 1:13.384---03---091------1100--520--593--GTR----G2-----IRT_NISSMANR32
02 - 1:13.575---05---075------1100--560--602--HSV----G3-----LOGICLINE
03 - 1:13.597---10---048------1100--550--600--GTR----G2-----DELTAJULIETMIKE
04 - 1:13.617---04---090------1100--520--593--GTR----G2-----DANNYB013
05 - 1:13.620---01---119------1125--520--593--430----G1-----TRL_ERAZER
06 - 1:13.630---07---058------1100--540--598--GTR----G2-----DANIEL1990
07 - 1:13.746---17---012------1100--520--593--GTR----G2-----IRT_COLOSSOSR33
08 - 1:13.897---15---030------1100--520--595--430----G1-----GTRP_MIRIAL
09 - 1:13.972---18---012------1100--570--604--HSV----G3-----T-n-T-2000
10 - 1:13.979---02---100------1125--520--593--430----G1-----AUGHABLO
11 - 1:14.453---14---034------1100--560--602--HSV----G3-----GU1TAR3RICH
12 - 1:14.454---11---045------1100--550--600--GTR----G2-----CRAZYJOHNISHERE
13 - 0:00.000---13---041------1100--570--604--HSV----G3-----GUEVEN-ZAPPELT

----------------------------------------------------------------------

RACE 9 TIMING

START
2016-09-19 21.52.22.jpg




AFTER 5 MIN
2016-09-19 21.55.40.jpg





AFTER 10 MIN
2016-09-19 22.01.10.jpg





AFTER 20 MIN
2016-09-19 22.07.33.jpg





AFTER 30 MIN
2016-09-19 22.13.12.jpg





AFTER 40 MIN
2016-09-19 22.18.31.jpg





AFTER 50 MIN
2016-09-19 22.20.10.jpg





AFTER 60 MIN
2016-09-19 22.21.14.jpg





AFTER 70 MIN
2016-09-19 22.23.05.jpg





AFTER 80 MIN
2016-09-19 22.23.35.jpg




AFTER 88 MIN
2016-09-19 22.24.26.jpg





AFTER 92 MIN
2016-09-19 22.26.32.jpg





FINISH
2016-09-19 20.14.06.jpg


--------------------------------

PICTURES

2016-09-19 21.52.51.jpg


2016-09-19 21.54.36.jpg


2016-09-19 21.55.02.jpg


2016-09-19 22.25.30.jpg

-----------------------------------------------

RACE 10 - MON 26 SEPT - DRY RACE
Red Bull Ring
1st: TRL_ERAZER
--2nd: LOGICLINE
---3rd: LETS_PARTY-1611
--Pole: IRT_COLOSSOSR33
-F Lap: AUGHABLO

2.68 miles Forward/Weather Variable Time fixed 15:00

------------------------------------

RACE 10 RESULTS

POS---PTS------KG---BHP---PP--CAR--GROUP---DRIVER

01------25------1125--520--593--430----G1-Y---TRL_ERAZER
02------20------1100--560--602--HSV----G3-----LOGICLINE
03------18------1100--560--602--HSV----G3-----LETS_PARTY-1611
04------16-+1--1125--520--593--430----G1-----AUGHABLO
05------14------1100--550--600--GTR----G2-----JFROD52
06------12------1100--560--602--HSV----G3-----MONKEYWALL
07------10------1100--550--600--GTR----G2-----DELTAJULIETMIKE
08------09------1100--520--593--GTR----G2-----DANNYB013
09------08-+1--1100--520--593--GTR----G2-----IRT_COLOSSOSR33
10------07------1100--570--604--HSV----G3-----GUEVEN-ZAPPELT
11------06------1100--550--600--GTR----G2-----CRAZYJOHNISHERE

Fastest Race Lap: Lap 62 AUGHABLO 1.24.341

-------------------------------------------------

RACE 10 QUALIFYING

POS-Q--TIME-----P---PTS--------KG---BHP---PP--CAR--GROUP---DRIVER
01 - 1:24.749---16---032------1100--520--593--GTR----G2-----IRT_COLOSSOSR33
02 - 1:24.780---01---133------1125--520--593--430----G1-Y---TRL_ERAZER
03 - 1:24.874---11---049------1100--560--602--HSV----G3-----MONKEYWALL
04 - 1:24.912---12---048------1100--550--600--GTR----G2-----DELTAJULIETMIKE
05 - 1:24.917---07---062------1100--550--600--GTR----G2-----JFROD52
06 - 1:25.020---19---008------1100--570--604--HSV----G3-----DANNYB_2JZ
07 - 1:25.024---06---065------1100--540--598--GTR----G2-----DANIEL1990

08 - 1:25.025---02---115------1100--520--593--GTR----G2-----DANNYB013
09 - 1:25.050---05---094------1100--560--602--HSV----G3-----LOGICLINE
10 - 1:25.118---08---053------1100--550--600--GTR----G2-----CRAZYJOHNISHERE
11 - 1:25.195---03---110------1125--520--593--430----G1-----AUGHABLO
12 - 1:25.466---10---050------1100--570--604--HSV----G3-----GUEVEN-ZAPPELT
13 - 1:25.472---00---000------1100--560--602--HSV----G3-----LETS_PARTY-1611

----------------------------------------------

RACE 10 TIMING

START
R10 S.jpg




AFTER 5 MIN
R10 5.jpg




AFTER 10 MIN
R10 10.jpg




AFTER 20 MIN
R10 20.jpg




AFTER 30 MIN
R10 30.jpg




AFTER 40 MIN
R10 40.jpg




AFTER 50 MIN
R10 50.jpg




AFTER 60 MIN
R10 60.jpg




AFTER 70 MIN
R10 70.jpg




AFTER 80 MIN
R10 80.jpg




AFTER 88 MIN
R10 88.jpg




AFTER 92 MIN
R10 92.jpg




FINISH
R10 F.jpg


---------------------------------

PICTURES

2016-09-26 22.56.56.jpg


2016-09-26 22.58.38.jpg


2016-09-26 22.59.00.jpg


2016-09-26 22.59.41.jpg


2016-09-26 23.00.40.jpg


2016-09-26 23.00.55.jpg


2016-09-26 23.08.05.jpg
 
Last edited:
3,866
United Kingdom
Essex UK
LOGICLINE
RACE 11 - MON 03 OCT - WEATHER RACE
Autodromo Nazionale Monza
1st: CRAZYJOHNISHERE
--2nd: IRT_NISSMANR32
---3rd: AUGHABLO
--Pole: DANNYB013
-F Lap: CRAZYJOHNISHERE

3.60 miles Forward/Weather Variable Time fixed 12:30

------------------------------------

Race Weather: 30%
Time: FIXED
Time progression: FIXED 12:30
Weather changeability: X15
Surface water at start: 10%
RACE START ON RH

------------------------------------

RACE 11 RESULTS

POS---PTS------KG---BHP---PP--CAR--GROUP---DRIVER

01------25-+1--1100--550--600--GTR----G2-----CRAZYJOHNISHERE
02------20------1100--520--593--GTR----G2-----IRT_NISSMANR32
03------18------1125--520--593--430----G1-----AUGHABLO
04------16------1100--570--604--HSV----G3-----GUEVEN-ZAPPELT
05------14------1100--560--602--HSV----G3-----LOGICLINE
06------12------1125--520--593--430----G1-Y---TRL_ERAZER
07------10------1100--550--600--GTR----G2-----JFROD52
08------09------1100--560--602--HSV----G3-----LETS_PARTY-1611
09------08------1100--560--602--HSV----G3-----MONKEYWALL
10------07------1100--560--602--HSV----G3-----GU1TAR3RICH
11------06------1100--550--600--GTR----G2-----DELTAJULIETMIKE
12------05------1100--520--595--430----G1-----GTRP_MIRIAL
13------04------1100--520--593--GTR----G2-----IRT_COLOSSOSR33

00------00-+1--1100--520--593--GTR----G2-----DANNYB013

Fastest Race Lap: 13 CRAZYJOHNISHERE 1.41.231

WEATHER REPORT
DRY UNTIL 85 MINUTES THEN RAIN STARTS
AT 90 MINUTES TRACK %1
AT 92 MINUTES TRACK %30

-------------------------------------------------

RACE 11 QUALIFYING

Race Weather: 20%
Time: FIXED 12.30
Time progression: FIXED
Weather changeability: FIXED
Surface water at start: 20%
Any tyre choice

------------------------------------------------

QUALIFYING RESULTS

------Q--TIME-----P---PTS--------KG---BHP---PP--CAR--GROUP---DRIVER

01 - 1:42.543---03---124------1100--520--593--GTR----G2-----DANNYB013
02 - 1:42.896---04---114------1100--560--602--HSV----G3-----LOGICLINE
03 - 1:42.904---09---059------1100--550--600--GTR----G2-----CRAZYJOHNISHERE
04 - 1:43.024---06---076------1100--550--600--GTR----G2-----JFROD52
05 - 1:43.087---08---061------1100--560--602--HSV----G3-----MONKEYWALL
06 - 1:43.141---01---158------1125--520--593--430----G1-Y---TRL_ERAZER
07 - 1:43.531---11---057------1100--570--604--HSV----G3-----GUEVEN-ZAPPELT
08 - 1:43.562---05---108------1100--520--593--GTR----G2-----IRT_NISSMANR32
09 - 1:43.796---02---127------1125--520--593--430----G1-----AUGHABLO
10 - 1:44.117---10---058------1100--550--600--GTR----G2-----DELTAJULIETMIKE
11 - 1:44.278---18---018------1100--560--602--HSV----G3-----LETS_PARTY-1611
12 - 0:00.000---13---042------1100--520--595--430----G1-----GTRP_MIRIAL
13 - 0:00.000---15---041------1100--520--593--GTR----G2-----IRT_COLOSSOSR33
14 - 0:00.000---16---040------1100--560--602--HSV----G3-----GU1TAR3RICH

----------------------------------------------------------------------

RACE 11 TIMING

START
R11 S.jpg





AFTER 5 MIN
R11 5.jpg





AFTER 10 MIN
R11 10.jpg





AFTER 20 MIN
R11 20.jpg





AFTER 30 MIN
R11 30.jpg





AFTER 40 MIN
R11 40.jpg





AFTER 50 MIN
R11 50.jpg





AFTER 60 MIN
R11 60.jpg





AFTER 70 MIN
R11 70.jpg





AFTER 80 MIN
R11 80.jpg





AFTER 88 MIN
R11 88.jpg





AFTER 92 MIN
R11 92.jpg





FINISH
R11 FINAL.jpg


----------------------------------------

PICTURES

R11 P1.jpg


R11 P2.jpg


R11 P3.jpg


R11 P4.jpg


R11 P5.jpg


R11 P6.jpg


R11 P8.jpg


R11 P9.jpg


R11 P10.jpg


R11 P12.jpg

-----------------------------------------------
05-10-2016 DRIVER SPEC CHANGE
-KG---BHP---PP--CAR--GROUP---DRIVER
1100--570--604--HSV----G3-----GU1TAR3RICH
-----------------------------------------------

RACE 12 - MON 10 OCT - DRY RACE
Twin Ring Motegi Road Course
1st: AUGHABLO
--2nd: JFROD52
---3rd: TRL_ERAZER
--Pole: AUGHABLO
-F Lap: LOGICLINE

2.98 miles Forward/weather/time variable
Race starts at game time 12:00

------------------------------------

RACE 12 RESULTS

POS---PTS------KG---BHP---PP--CAR--GROUP---DRIVER

01------25-+1--1125--520--593--430----G1-----AUGHABLO
02------20------1100--550--600--GTR----G2-----JFROD52
03------18-Y----1125--520--593--430----G1-Y---TRL_ERAZER
04------16------1100--520--593--GTR----G2-----IRT_COLOSSOSR33
05------14------1100--520--593--GTR----G2-----IRT_NISSMANR32
06------12------1100--550--600--GTR----G2-----DELTAJULIETMIKE
07------10------1100--560--602--HSV----G3-Y---MONKEYWALL
08------09------1100--520--595--430----G1-----GTRP_MIRIAL
09------08-+1--1100--560--602--HSV----G3-----LOGICLINE
10------07------1100--550--600--GTR----G2-Y---CRAZYJOHNISHERE
11------06------1100--570--604--HSV----G3-----GU1TAR3RICH

Fastest Race Lap: Lap 51 LOGICLINE 1.42.954

-------------------------------------------------

RACE 12 QUALIFYING

P ---Q--TIME-----P---PTS--------KG---BHP---PP--CAR--GROUP---DRIVER

01 - 1:43.682---02---145------1125--520--593--430----G1-----AUGHABLO
02 - 1:43.769---04---128------1100--520--593--GTR----G2-----IRT_NISSMANR32
03 - 1:43.770---01---170------1125--520--593--430----G1-Y---TRL_ERAZER
04 - 1:43.840---11---064------1100--550--600--GTR----G2-----DELTAJULIETMIKE
05 - 1:43.925---06---086------1100--550--600--GTR----G2-----JFROD52
06 - 1:44.074---03---128------1100--560--602--HSV----G3-----LOGICLINE
07 - 1:44.161---17---027------1100--560--602--HSV----G3-----LETS_PARTY-1611
08 - 1:44.290---15---045------1100--520--593--GTR----G2-----IRT_COLOSSOSR33
09 - 1:44.311---07---085------1100--550--600--GTR----G2-----CRAZYJOHNISHERE
10 - 1:44.331---08---073------1100--570--604--HSV----G3-----GUEVEN-ZAPPELT
11 - 1:44.444---09---069------1100--560--602--HSV----G3-----MONKEYWALL
12 - 1:44.606---13---047------1100--520--595--430----G1-----GTRP_MIRIAL
13 - 1:44.826---14---047------1100--570--604--HSV----G3-----GU1TAR3RICH

----------------------------------------------------------------------

RACE 12 TIMING

START
r12 1.jpg




AFTER 5 MIN
r12 5.jpg





AFTER 10 MIN
r12 10.jpg





AFTER 20 MIN
r12 20.jpg





AFTER 30 MIN
r12 30.jpg





AFTER 40 MIN
r12 40.jpg





AFTER 50 MIN
r12 50.jpg





AFTER 60 MIN
r12 60.jpg





AFTER 70 MIN
r12 70.jpg





AFTER 80 MIN
r12 80.jpg





AFTER 88 MIN
r12 88.jpg





AFTER 92 MIN
r12 92.jpg





FINISH
r12 95f.jpg


----------------------------------------

PICTURES

r12 p1.jpg


r12 p2.jpg


r12 p3.jpg


r12 p4.jpg


r12 p5.jpg

-----------------------------------------------
11-10-16 DRIVER SPEC CHANGE
LETS_PARTY-1611 SPEC CHANGE
-KG---BHP---PP--CAR--GROUP---DRIVER
1100--550--600--HSV----G3-----LETS_PARTY-1611
-----------------------------------------------

RACE 13 - MON 17 OCT - DRY RACE
Indianapolis Road Course
1st: LOGICLINE
--2nd: TRL_ERAZER
---3rd: IRT_COLOSSOSR33
--Pole: LOGICLINE
-F Lap: TRL_ERAZER

2.61 miles Forward Time fixed 15:40

------------------------------------

RACE 13 RESULTS

POS---PTS------KG---BHP---PP--CAR--GROUP---DRIVER

POS---PTS------KG---BHP---PP--CAR--GROUP---DRIVER

01------25-+1--1100--560--602--HSV----G3-----LOGICLINE
02------20-+1--1125--520--593--430----G1-YY--TRL_ERAZER
03------18------1100--520--593--GTR----G2-----IRT_COLOSSOSR33
04------16------1100--540--598--GTR----G2-----DANIEL1990
05------14------1100--550--600--HSV----G3-----LETS_PARTY-1611
06------12------1100--520--593--GTR----G2-----IRT_NISSMANR32
07------10------1125--520--593--430----G1-----AUGHABLO
08------06------1100--550--600--GTR----G2-Y---CRAZYJOHNISHERE pts swop
09------08------1100--560--602--HSV----G3-Y---MONKEYWALL
10------07------1100--520--595--430----G1-----GTRP_MIRIAL
11------09------1100--570--604--HSV----G3-----GU1TAR3RICH pts swop
12------05------1100--550--600--GTR----G2-----DELTAJULIETMIKE

Fastest Race Lap: 25 TRL_ERAZER 1.24.541

-------------------------------------------------

RACE 13 QUALIFYING

-----Q--TIME-----P---PTS--------KG---BHP---PP--CAR--GROUP---DRIVER

01 - 1:24.964---04---137------1100--560--602--HSV----G3-----LOGICLINE
02 - 1:25.039---03---142------1100--520--593--GTR----G2-----IRT_NISSMANR32
03 - 1:25.125---11---065------1100--540--598--GTR----G2-----DANIEL1990
04 - 1:25.168---12---061------1100--520--593--GTR----G2-----IRT_COLOSSOSR33
05 - 1:25.172---08---079------1100--560--602--HSV----G3-Y---MONKEYWALL
06 - 1:25.199---01---186------1125--520--593--430----G1-YY--TRL_ERAZER
07 - 1:25.367---02---171------1125--520--593--430----G1-----AUGHABLO
08 - 1:25.441---09---076------1100--550--600--GTR----G2-----DELTAJULIETMIKE
09 - 1:25.447---14---053------1100--570--604--HSV----G3-----GU1TAR3RICH
10 - 1:25.450---07---092------1100--550--600--GTR----G2-Y---CRAZYJOHNISHERE
11 - 1:26.188---17---027------1100--550--600--HSV----G3-----LETS_PARTY-1611
12 - 0:00.000---13---056------1100--520--595--430----G1-----GTRP_MIRIAL

----------------------------------------------------------------------

RACE 13 TIMING

START
R13 0.jpg





AFTER 5 MIN
R13 5.jpg





AFTER 10 MIN
R13 10.jpg





AFTER 20 MIN
R13 20.jpg





AFTER 30 MIN
R13 30.jpg





AFTER 40 MIN
R13 40.jpg





AFTER 50 MIN
R13 50.jpg





AFTER 60 MIN
R13 60.jpg





AFTER 70 MIN
R13 70.jpg





AFTER 80 MIN
R13 80.jpg





AFTER 88 MIN
R13 88.jpg





AFTER 92 MIN
R13 92.jpg





FINISH
R13 99.jpg


--------------------------------

PICTURES

R13 P 1.jpg


R13 P 2.jpg


R13 P 3.jpg


R13 P 4.jpg


R13 P 5.jpg

----------------------------------------------

RACE 14 - MON 24 OCT - DRY RACE
Mid-field Raceway
1st: LOGICLINE
--2nd: JFROD52
---3rd: AUGHABLO
--Pole: LOGICLINE
-F Lap: I_MAXX_PAIN_I

2.21 miles Forward/weather/time variable
Race starts at game time 12:00

------------------------------------

RACE 14 RESULTS

POS---PTS------KG---BHP---PP--CAR--GROUP---DRIVER

01------25-+1--1100--560--602--HSV----G3-----LOGICLINE
02------20------1100--550--600--GTR----G2-----JFROD52
03------18------1125--520--593--430----G1-----AUGHABLO
04------16------1125--520--593--430----G1-YY--TRL_ERAZER
05------14------1100--550--600--GTR----G2-YY--CRAZYJOHNISHERE
06------12------1100--570--604--HSV----G3-----GU1TAR3RICH
07------10------1100--550--600--GTR----G2-----DELTAJULIETMIKE
08------09------1100--570--604--HSV----G3-----GUEVEN-ZAPPELT
09------08------1100--560--602--HSV----G3-Y---MONKEYWALL
10------07------1100--520--593--GTR----G2-----IRT_NISSMANR32
11------06------1100--540--598--GTR----G2-----DANIEL1990
12------05------1100--520--595--430----G1-----GTRP_MIRIAL
13------04-+1--1100--560--602--HSV----G3-----I_MAXX_PAIN_I
14------03------1100--550--600--HSV----G3-----LETS_PARTY-1611
15------02------1100--540--598--GTR----G2-----MRRACINGLINE

Fastest Race Lap: 75 I_MAXX_PAIN_I 1.03.118

-------------------------------------------------

RACE 14 QUALIFYING

P----Q--TIME-----P---PTS--------KG---BHP---PP--CAR--GROUP---DRIVER

01 - 1:04.044---03---163------1100--560--602--HSV----G3-----LOGICLINE
02 - 1:04.115---06---106------1100--550--600--GTR----G2-----JFROD52
03 - 1:04.192---01---207------1125--520--593--430----G1-YY--TRL_ERAZER
04 - 1:04.215---02---181------1125--520--593--430----G1-----AUGHABLO
05 - 1:04.253---17---041------1100--550--600--HSV----G3-----LETS_PARTY-1611
06 - 1:04.253---08---087------1100--560--602--HSV----G3-Y---MONKEYWALL
07 - 1:04.259---10---081------1100--550--600--GTR----G2-----DELTAJULIETMIKE
08 - 1:04.341---14---062------1100--570--604--HSV----G3-----GU1TAR3RICH
09 - 1:04.555---07---096------1100--550--600--GTR----G2-YY--CRAZYJOHNISHERE
10 - 1:04.604---13---063------1100--520--595--430----G1-----GTRP_MIRIAL
11 - 0:00.000---04---154------1100--520--593--GTR----G2-----IRT_NISSMANR32
12 - 0:00.000---09---081------1100--540--598--GTR----G2-----DANIEL1990
13 - 0:00.000---12---073------1100--570--604--HSV----G3-----GUEVEN-ZAPPELT
14 - 0:00.000---00---000------1100--560--602--HSV----G3-----I_MAXX_PAIN_I
15 - 0:00.000---00---000------1100--540--598--GTR----G2-----MRRACINGLINE
16 -

1:04.288---15---051------1125--520--593--430----G1-----PAULTHEGREATGOLF

----------------------------------------------------------------------

RACE 14 TIMING

START
R14 0.jpg





AFTER 5 MIN
R 14 5.jpg





AFTER 10 MIN
R 14 10.jpg





AFTER 20 MIN
R 14 20.jpg





AFTER 30 MIN
R 14 30.jpg





AFTER 40 MIN
R 14 40.jpg





AFTER 50 MIN
R 14 50.jpg





AFTER 60 MIN
R 14 60.jpg





AFTER 70 MIN
R 14 70.jpg




AFTER 80 MIN
R 14 80.jpg




AFTER 88 MIN
R 14 88.jpg




AFTER 92 MIN
R 14 92.jpg





FINISH
r14 100.jpg


----------------------------------------

PICTURES

R 14 P1.jpg


R 14 P2.jpg


R 14 P3.jpg


R 14 P4.jpg


R 14 P5.jpg


R 14 P6.jpg


R 14 P7.jpg

-----------------------------------------------
25-10-16 DRIVER SPEC CHANGE
-KG---BHP---PP--CAR--GROUP---DRIVER
1100--550--600--HSV----G3-----LOGICLINE
1100--550--600--GTR----G2-----LETS_PARTY-1611
-----------------------------------------------
FROM 25 10 16 NEW DRIVERS SPEC
-KG---BHP---PP--CAR--GROUP---DRIVER
1100--570--604--HSV----G3-----PUR3DELETE
1100--550--600--GTR----G2-----MRRACINGLINE
1100--540--598--GTR----G2----I_MAXX_PAIN_I
-----------------------------------------------

RACE 15 - MON 31 OCT - DRY RACE
Fuji Speedway F
1st: IRT_NISSMANR32
--2nd: TRL_ERAZER
---3rd: AUGHABLO
--Pole: DANIEL1990
-F Lap: LETS_PARTY-1611

2.84 miles Forward Time fixed 16:00

------------------------------------

RACE 15 RESULTS

POS----PTS------KG---BHP---PP--CAR--GROUP---DRIVER

01------25------1100--520--593--GTR----G2-----IRT_NISSMANR32
02------20------1125--520--593--430----G1-YY--TRL_ERAZER
03------18------1125--520--593--430----G1-----AUGHABLO
04------16------1100--550--600--GTR----G2-----JFROD52
05------14------1100--560--602--HSV----G3-Y---MONKEYWALL
06------12------1100--520--593--GTR----G2-----IRT_COLOSSOSR33
07------10------1100--520--595--430----G1-----GTRP_MIRIAL
08------09------1100--550--600--GTR----G2-----DELTAJULIETMIKE
09------08------1100--550--600--HSV----G3-----LOGICLINE
10------07-+1--1100--550--600--GTR----G2-----LETS_PARTY-1611
11------06------1100--570--604--HSV----G3-----GUEVEN-ZAPPELT
12------05------1100--570--604--HSV----G3-----GU1TAR3RICH
13------04------1100--550--600--GTR----G2-----MRRACINGLINE
14------03------1100--550--600--GTR----G2-YY--CRAZYJOHNISHERE

DNF----00-+1--1100--540--598--GTR----G2-----DANIEL1990

Fastest Race Lap: Lap 51 LETS_PARTY-1611 1.31.760

-------------------------------------------------

RACE 15 QUALIFYING

P---Q--TIME-----P---PTS--------KG---BHP---PP--CAR--GROUP---DRIVER

01 - 1:32.447--10---087------1100--540--598--GTR----G2-----DANIEL1990
02 - 1:32.574--02---199------1125--520--593--430----G1-----AUGHABLO
03 - 1:32.668--04---161------1100--520--593--GTR----G2-----IRT_NISSMANR32
04 - 1:32.684--05---126------1100--550--600--GTR----G2-----JFROD52
05 - 1:32.816--07---110------1100--550--600--GTR----G2-YY--CRAZYJOHNISHERE
06 - 1:32.827--01---223------1125--520--593--430----G1-YY--TRL_ERAZER
07 - 1:32.909--08---095------1100--560--602--HSV----G3-Y---MONKEYWALL
08 - 1:33.145--23---002------1100--550--600--GTR----G2-----MRRACINGLINE
09 - 1:33.207--13---074------1100--570--604--HSV----G3-----GU1TAR3RICH
10 - 1:33.375--21---005------1100--540--598--GTR----G2-----I_MAXX_PAIN_I
11 - 1:33.385--14---068------1100--520--595--430----G1-----GTRP_MIRIAL
12 - 1:33.484--16---044------1100--550--600--GTR----G2-----LETS_PARTY-1611
13 - 1:33.517--09---091------1100--550--600--GTR----G2-----DELTAJULIETMIKE
14 - 1:33.587--03---189------1100--550--600--HSV----G3-----LOGICLINE
15 - 1:34.271--11---082------1100--570--604--HSV----G3-----GUEVEN-ZAPPELT
16 - 0:00.000--12---079------1100--520--593--GTR----G2-----IRT_COLOSSOSR33

----------------------------------------------------------------------

RACE 15 TIMING

START
-




AFTER 5 MIN
-




AFTER 10 MIN
-



AFTER 20 MIN
-




AFTER 30 MIN
-



AFTER 40 MIN
-




AFTER 50 MIN
-



AFTER 60 MIN
-



AFTER 70 MIN
-




AFTER 80 MIN
-




AFTER 88 MIN
-




AFTER 92 MIN
-




FINISH
-

--------------------------------------

PICTURES

-

-

-

-

------------------------------------------------------------------

DROP 2 SCORES FROM RACES 9 - 15 & RECALCULATE PTS
ROUND 9 - 15 Championship Points Standings
BEFORE & AFTER 2 DROPPED RESULTS

Championship Points Standings
BEFORE 2 DROPPED RESULTS

After week 15 of 16 weeks

P----PTS-------KG---BHP---PP--CAR--GROUP---DRIVER

01---243------1125--520--593--430----G1-YY--TRL_ERAZER
02---217------1125--520--593--430----G1-----AUGHABLO
03---197------1100--550--600--HSV----G3-----LOGICLINE
04---186------1100--520--593--GTR----G2-----IRT_NISSMANR32
05---142------1100--550--600--GTR----G2-----JFROD52
06---125------1100--520--593--GTR----G2-----DANNYB013
07---113------1100--550--600--GTR----G2-YY--CRAZYJOHNISHERE
08---109------1100--560--602--HSV----G3-Y---MONKEYWALL
09---100------1100--550--600--GTR----G2-----DELTAJULIETMIKE
10---091------1100--520--593--GTR----G2-----IRT_COLOSSOSR33
11---088------1100--540--598--GTR----G2-----DANIEL1990
12---088------1100--570--604--HSV----G3-----GUEVEN-ZAPPELT
13---079------1100--570--604--HSV----G3-----GU1TAR3RICH
14---078------1100--520--595--430----G1-----GTRP_MIRIAL
15---052------1100--550--600--HSV----G3-----LETS_PARTY-1611
16---051------1125--520--593--430----G1-----PAULTHEGREATGOLF
17---041------1100--525--594--GTR----G2-----TNR_FILO
18---025------1100--540--598--GTR----G2-----PHAEDRUSSOCRATES
19---012------1100--570--604--HSV----G3-----T-n-T-2000
20---008------1100--570--604--HSV----G3-----DANNYB_2JZ
21---006------1100--550--600--GTR----G2-----MRRACINGLINE
22---005------1100--540--598--GTR----G2-----I_MAXX_PAIN_I
23---002------1100--550--600--GTR----G2-----STRETCHY-
24---000------1100--570--604--HSV----G3-----PUR3DELETE

----------------------------------------------

ROUND 9 - 15 POINTS SCORED CHART
BEFORE 2 DROPPED RESULTS


01---02---03---04---05---06---07---08--DRP--TOT---09---10---11---12---13---14---15---DRP---TOT---16---FINAL--DRIVER

20---18---18---26---21---27---10---25--46--119---14Y--25---12---18Y--21---16---20---000---000---00---000--TRL_ERAZER - YY -2

20---20---20---17---18---20---20---19--54--100---10---17---18---26---10---18---18---000---000---00---000--AUGHABLO

09---18---06---09---14---09---25---08--23--075---19---20---14---09---26---26---08---000---000---00---000--LOGICLINE

00---06---12---18---25---18---14---16--18--091---17---00---20---14---12---07---25---000---000---00---000--IRT_NISSMANR32

00---10---14---10---09---00---19---06--06--062---00---14---10---20---00---20---16---000---000---00---000--JFROD52


10---07---16---20---17---14---16---21--31--090---25---09---01---00---00---00---00---000---000---00---000--DANNYB013

14---00---02---05---10---00---00---14--00--045---08---06---26---07---06---14---03---000---000---00---000--CRAZYJOHNISHERE YYP -2-7

06---14---00---04---12---00---12---05--04--049---00---12---08---10---08---08---14---000---000---00---000--MONKEYWALL Y

12---05---09---00---07---00---10---10--05--048---00---10---06---12---05---10---09---000---000---00---000--DELTAJULIETMIKE

00---00---00---00---00---00---00---12--00--012---20---09---04---16---18---00---12---000---000---00---000--IRT_COLOSSOSR33

07---12---08---12---10---16---06---07--20--058---07---00---00---00---16---06---01---000---000---00---000--DANIEL1990

08---08---05---08---08---08---07---09--20--041---09---07---16---00---00---09---06---000---000---00---000--GUEVEN-ZAPPELT

04---09---07---06---00---00---08---04--04--034---06---00---07---06---09---12---05---000---000---00---000--GU1TAR3RICH

01---02---03---04---05---06---07---08--DRP--TOT---09---10---11---12---13---14---15---DRP---TOT---16---FINAL--DRIVER

00---00---00---14---12---00---04---00--00--030---12---00---05---09---07---05---10---000---000---00---000--GTRP_MIRIAL

00---00---00---00---00---00---00---00--000--000---00---18---09---00---14---03---08---000---000---00---000--LETS_PARTY-1611


25---00---26---00---00---00---00---00--00--051---00---00---00---00---00---00---00---000---000---00---000--PAULTHEGREATGOLF

16---25---00---00---00---00---00---00--00--041---00---00---00---00---00---00---00---000---000---00---000--TNR_FILO

00---00---11---07---07---00---00---00--00--025---00---00---00---00---00---00---00---000---000---00---000--PHAEDRUSSOCRATES

00---00---04---03---00---00---05---00--00--012---00---00---00---00---00---00---00---000---000---00---000--T-n-T-2000

05---00---03---00---00---00---00---00--00--008---00---00---00---00---00---00---00---000---000---00---000--DANNYB_2JZ

00---00---00---00---00---00---00---00--000--000---00---00---00---00---00---02---04---000---000---00---000--MRRACINGLINE

00---00---00---00---00---00---00---00--000--000---00---00---00---00---00---05---00---000---000---00---000--I_MAXX_PAIN_I

00---00---00---02---00---00---00---00--00--002---00---00---00---00---00---00---00---000---000---00---000--STRETCHY-

00---00---00---00---00---00---00---00--000--000---00---00---00---00---00---00---00---000---000---00---000--PUR3DELETE


------------------------------------------------------------------

Championship Points Standings
AFTER 2 DROPPED RESULTS
After week 15 of 16 weeks

P----PTS-------KG---BHP---PP--CAR--GROUP---DRIVER

01---217------1125--520--593--430----G1-YY--TRL_ERAZER
02---197------1125--520--593--430----G1-----AUGHABLO
03---180------1100--550--600--HSV----G3-----LOGICLINE
04---179------1100--520--593--GTR----G2-----IRT_NISSMANR32
05---142------1100--540--598--GTR----G2-----JFROD52
06---125------1100--520--593--GTR----G2-----DANNYB013
07---101------1100--560--602--HSV----G3-Y---MONKEYWALL
08---097------1100--550--600--GTR----G2-YYPCRAZYJOHNISHERE
09---095------1100--550--600--GTR----G2-----DELTAJULIETMIKE
10---088------1100--540--598--GTR----G2-----DANIEL1990
11---088------1100--570--604--HSV----G3-----GUEVEN-ZAPPELT
12---087------1100--520--593--GTR----G2-----IRT_COLOSSOSR33
13---074------1100--570--604--HSV----G3-----GU1TAR3RICH
14---073------1100--520--595--430----G1-----GTRP_MIRIAL
15---052------1100--550--600--HSV----G3-----LETS_PARTY-1611
16---051------1125--520--593--430----G1-----PAULTHEGREATGOLF
17---041------1100--525--594--GTR----G2-----TNR_FILO
18---025------1100--540--598--GTR----G2-----PHAEDRUSSOCRATES
19---012------1100--570--604--HSV----G3-----T-n-T-2000
20---008------1100--570--604--HSV----G3-----DANNYB_2JZ
21---006------1100--550--600--GTR----G2-----MRRACINGLINE
22---005------1100--540--598--GTR----G2-----I_MAXX_PAIN_I
23---002------1100--550--600--GTR----G2-----STRETCHY-
24---000------1100--570--604--HSV----G3-----PUR3DELETE

--------------------------------------------------

POINTS SCORED CHART
AFTER 2 DROPPED RESULTS


01---02---03---04---05---06---07---08--DRP--TOT---09---10---11---12---13---14---15---DRP---TOT---16---FINAL--DRIVER

20---18---18---26---21---27---10---25--46--119---14Y--25---12---18Y--21---16---20---026---217---00---000--TRL_ERAZER - YY -2

20---20---20---17---18---20---20---19--54--100---10---17---18---26---10---18---18---020---197---00---000--AUGHABLO

09---18---06---09---14---09---25---08--23--075---19---20---14---09---26---26---08---017---180---00---000--LOGICLINE

00---06---12---18---25---18---14---16--18--091---17---00---20---14---12---07---25---007---179---00---000--IRT_NISSMANR32

00---10---14---10---09---00---19---06--06--062---00---14---10---20---00---20---16---000---142---00---000--JFROD52


10---07---16---20---17---14---16---21--31--090---25---09---01---00---00---00---00---000---125---00---000--DANNYB013

06---14---00---04---12---00---12---05--04--049---00---12---08---10---08---08---14---008---101---00---000--MONKEYWALL Y

14---00---02---05---10---00---00---14--00--045---08---06---26---07---06---14---03---009---097---00---000--CRAZYJOHNISHERE YYP -2-7

12---05---09---00---07---00---10---10--05--048---00---10---06---12---05---10---09---005---095---00---000--DELTAJULIETMIKE

07---12---08---12---10---16---06---07--20--058---07---00---00---00---16---06---01---000---088---00---000--DANIEL1990

08---08---05---08---08---08---07---09--20--041---09---07---16---00---00---09---06---000---088---00---000--GUEVEN-ZAPPELT

00---00---00---00---00---00---00---12--00--012---20---09---04---16---18---00---12---004---087---00---000--IRT_COLOSSOSR33

04---09---07---06---00---00---08---04--04--034---06---00---07---06---09---12---05---005---074---00---000--GU1TAR3RICH

01---02---03---04---05---06---07---08--DRP--TOT---09---10---11---12---13---14---15---DRP---TOT---16---FINAL--DRIVER

00---00---00---14---12---00---04---00--00--030---12---00---05---09---07---05---10---005---073---00---000--GTRP_MIRIAL

00---00---00---00---00---00---00---00--000--000---00---18---09---00---14---03---08---000---052---00---000--LETS_PARTY-1611


25---00---26---00---00---00---00---00--00--051---00---00---00---00---00---00---00---000---051---00---000--PAULTHEGREATGOLF

16---25---00---00---00---00---00---00--00--041---00---00---00---00---00---00---00---000---041---00---000--TNR_FILO

00---00---11---07---07---00---00---00--00--025---00---00---00---00---00---00---00---000---025---00---000--PHAEDRUSSOCRATES

00---00---04---03---00---00---05---00--00--012---00---00---00---00---00---00---00---000---012---00---000--T-n-T-2000

05---00---03---00---00---00---00---00--00--008---00---00---00---00---00---00---00---000---008---00---000--DANNYB_2JZ

00---00---00---00---00---00---00---00--000--000---00---00---00---00---00---02---04---000---006---00---000--MRRACINGLINE

00---00---00---00---00---00---00---00--000--000---00---00---00---00---00---05---00---000---005---00---000--I_MAXX_PAIN_I

00---00---00---02---00---00---00---00--00--002---00---00---00---00---00---00---00---000---002---00---000--STRETCHY-

00---00---00---00---00---00---00---00--000--000---00---00---00---00---00---00---00---000---000---00---000--PUR3DELETE

---------------------------------------------------------------
01 11 2016 SPEC CHANGE
KG---BHP---PP--CAR--GROUP---DRIVER
1100--540--598--GTR----G2-----JFROD52
1100--520--593--430----G1-----PAULTHEGREATGOLF
---------------------------------------------------------------

RACE 16 - MON 7 NOV - WEATHER RACE
Circuit de Spa-Francorchamps
1st: CRAZYJOHNISHERE
--2nd: TRL_ERAZER
---3rd: IRT_NISSMANR32
--Pole: AUGHABLO
-F Lap: CRAZYJOHNISHERE

4.35 miles Forward weather/time variable
Race starts at game time 12:00

------------------------------------

RACE
Weather 50%
Time 12.00
Time progression X1
Weather changeability X15
Surface water at start 10%

RACE 16 RESULTS

POS---PTS------KG---BHP---PP--CAR--GROUP---DRIVER

01------25-+1--1100--550--600--GTR--G2-YYP--CRAZYJOHNISHERE
02------20------1125--520--593--430--G1-YY----TRL_ERAZER
03------18------1100--520--593--GTR--G2-------IRT_NISSMANR32
04------16------1100--540--598--GTR--G2-------JFROD52
05------14------1100--550--600--HSV--G3-------LETS_PARTY-1611
06------12------1100--520--595--430--G1-------GTRP_MIRIAL
07------10------1100--570--604--HSV--G3-------GUEVEN-ZAPPELT
08------09------1100--540--598--GTR--G2-------DANIEL1990
09------08------1100--560--602--HSV--G3-Y-----MONKEYWALL
10------07------1100--550--600--HSV--G3-------LOGICLINE

-------------+1--1125--520--593--430--G1-------AUGHABLO

Fastest Race Lap: 4 CRAZYJOHNISHERE 2.09.870

Dry throughout the whole race.
-------------------------------------------------

QUALY
Weather 50%
Time 12.00
Time progression X1
Weather changeability FIXED
Surface water at start 50%


RACE 16 QUALIFYING

Q--TIME-----P---PTS--------KG---BHP---PP--CAR---G---PEN-------DRIVER

01 - 2:21.063----02---197------1125--520--593--430--G1-------AUGHABLO
02 - 2:21.134----01---217------1125--520--593--430--G1-YY----TRL_ERAZER
03 - 2:21.757----08---101------1100--560--602--HSV--G3-Y-----MONKEYWALL
04 - 2:22.171----05---142------1100--540--598--GTR--G2-------JFROD52
05 - 2:22.217----10---088------1100--540--598--GTR--G2-------DANIEL1990
06 - 2:22.345----16---051------1100--520--595--430--G1-------PAULTHEGREATGOLF
07 - 2:22.366----03---180------1100--550--600--HSV--G3-------LOGICLINE
08 - 2:22.474----13---074------1100--570--604--HSV--G3-------GU1TAR3RICH
09 - 2:22.541----07---097------1100--550--600--GTR--G2-YYP--CRAZYJOHNISHERE
10 - 2:22.674----04---179------1100--520--593--GTR--G2-------IRT_NISSMANR32
11 - 2:22.690----14---073------1100--520--595--430--G1-------GTRP_MIRIAL
12 - 2:23.025----15---052------1100--550--600--HSV--G3-------LETS_PARTY-1611
13 - 2:23.682----11---088------1100--570--604--HSV--G3-------GUEVEN-ZAPPELT

----------------------------------------------------------------------

RACE 16 TIMING

START
R16 0.jpg



AFTER 5 MIN
R16 5.jpg



AFTER 10 MIN
R16 10.jpg



AFTER 20 MIN
R16 20.jpg



AFTER 30 MIN
R16 30.jpg



AFTER 40 MIN
R16 40.jpg



AFTER 50 MIN
R16 50.jpg



AFTER 60 MIN
R16 60.jpg



AFTER 70 MIN
R16 70.jpg



AFTER 80 MIN
R16 80.jpg



AFTER 88 MIN
R16 88.jpg



AFTER 92 MIN
R16 92.jpg



FINISH
R16 99.jpg



PICTURES
R16 P3.jpg



R16 P4.jpg



R16 P1.jpg


podium.png
 
Last edited:
3,866
United Kingdom
Essex UK
LOGICLINE
15: DRIVER SIGNUPS NOW OPEN
PLEASE JUST POST in this thread..........
YOUR
PSN NAME
GTP NAME
CAR COLOUR AND NUMBER CHOICE

We will need to grade you to the appropriate group and car.

DRIVER SIGNUPS CONFIRMED
GROUP 3 - HONDA HSV-010 GT Base Model '12
I_MAXX_PAIN_I # - 4 purple
LOGICLINE # 16 - Pink
GUEVEN-ZAPPELT # 46 - Yellow
DANNYB_2JZ # 7 - Gold
MONKEYWALL # 35 - Yellow
GU1TAR3RICH # 31 - Plum
T-n-T-2000 # 67 - Red
JAMSY # 36 - Red


GROUP 2 - NISSAN GT-R GT500 Base Model '08
PUR3DELETE
MRRACINGLINE # 71 - yellow
DANIEL1990 # 23 - Black
CRAZYJOHNISHERE # 25 - Red
DELTAJULIETMIKE # 37 - Green
TNR_FILO # 65 - Blue
DANNYB013 # 14 - White
JFROD52 # 10 - Black
PHAEDRUSSOCRATES # 5 - Gold
J_STARSCREAM # 3 - Yellow
STRETCHY- # 77 - Orange
IRT_NISSMANR32 # 1 - Blue
IRT_COLOSSOSR33 # 57 - Silver
GTRP_MIRIAL # 21 - Blue

GROUP 1 - LEXUS SC430 GT500 BASE MODEL 08
TRL_ERAZER # 13 - Blue
PAULTHEGREATGOLF # 81 - Green
AUGHABLO # 91 - Silver

GTP PSN DETAILS
 
Last edited:
3,866
United Kingdom
Essex UK
LOGICLINE
16: SERIES SPOTTERS GUIDE
--------------------------------------------------------------------------------
ART BY CRAZYJOHNISHERE
--------------------------------------------------------------------------------

TRL_ERAZER -
BONNET -
LOGITEC DFGT -
erazer.jpg


--------------------------------------------------------------------------------

AUGHABLO -
BONNET -
aug green.jpg


--------------------------------------------------------------------------------

LOGICLINE -
BONNET -
THRUSTMASTER T500RS - WHEELSTAND PRO -
LOG NEW.jpg


--------------------------------------------------------------------------------

IRT_NISSMANR32 -
BUMPER -
G25 -
niss.jpg


--------------------------------------------------------------------------------

JFROD52 -
BUMPER -
THRUSTMASTER T300RS -

jfrod2.png

--------------------------------------------------------------------------------

CRAZYJOHNISHERE -
BUMPER / BONNET / COCKPIT -
DS3 CONTROLLER -
cj.jpg


--------------------------------------------------------------------------------

GUEVEN-ZAPPELT -
BUMPER -
THRUSTMASTER T500RS -
guev.jpg


--------------------------------------------------------------------------------

MONKEYWALL -
BUMPER -
G29 -
MONKEY NEW.jpg



--------------------------------------------------------------------------------

DELTAJULIETMIKE -
BUMPER-
G29 WHEEL -
DJNEW.jpg


--------------------------------------------------------------------------------

GTRP_MIRIAL -
BUMPER -
MIR NEW.jpg


--------------------------------------------------------------------------------

GU1TAR3RICH -
BUMPER -
RICH NEW.jpg


--------------------------------------------------------------------------------

IRT_COLOSSOSR33 -
BUMPER -
col.jpg


--------------------------------------------------------------------------------

LETS_PARTY-1611 -
BUMPER -
THRUSTMASTER T500RSGT - ULTIMATE COCKPIT -
lp yellow.jpg


--------------------------------------------------------------------------------

T-n-T-2000 -
CHASE -
THRUSTMASTER T300RS -
tnt.jpg


--------------------------------------------------------------------------------


DANNYB013 -
BUMPER -
LOGITEC DFGT















--------------------------------------------------------------------------------

PHAEDRUSSOCRATES -











--------------------------------------------------------------------------------

DANNYB_2JZ -













--------------------------------------------------------------------------------

PAULTHEGREATGOLF -
















--------------------------------------------------------------------------------

TNR_FILO -
















--------------------------------------------------------------------------------

DANIEL1990 -




















--------------------------------------------------------------------------------

STRETCHY- -















--------------------------------------------------------------------------------
 
Last edited:
3,866
United Kingdom
Essex UK
LOGICLINE
17: TUNES & DRIVING GUIDES
ERASERS SETTING UP GUIDE
GENERAL GUIDE
if its too loose for you, increase rear down force a bit
If its still too loose under acceleration, decrease LSD acceleration sensitivity
If its still too loose under braking, increase LSD deceleration
If its still too loose, increase initial LSD (I do not recommend this, as it kills rotation)

RIDE HEIGHT
Max ride height: more grip and traction, but slow top speed and acceleration.
Min ride height: less grip, but better top speed and acceleration.
This means that max front and min rear gives more rotation.

SPRING
Max spring rate: less grip, but reacts to steering input faster, thus giving you more turn in and control.
Min spring rate: more grip, but reacts to steering input slower, thus giving you less turn in and control.
This means that min front and max rear gives more rotation.

DAMPERS
dampers react the same way as spring rate, but its much better to keep dampers at 1 and adjust spring rate instead. as long as you don't go to extreme values, don't bother with the game's instructions that dampers should be adjusted accordingly to spring rate. (it is very true in real life, but in GT6 its not needed).

ROLL BARS
Max Anti Roll Bar gives more grip.
Min Anti Roll Bar gives less grip.
Anti Roll Bar is interesting though, because if lowering a Anti Roll Bar, the grip increases on that axle, but if you lower both axles, the total grip is lower, not higher...

CAMBER
Camber delays the grip, just as in real life, but in contrast to real life, it does not get better when under load.
So 0/0 is pretty much always preferred, only exception is heavily under steering cars, then you can use rear camber to make the rear step out to get it to slide a little, but its a last resort, if everything else fails.

TOE
Toe is great for adjusting car behavior.
negative front toe increases rotation, but can make the car behave weird on turn in
positive front toe reduces rotation, but makes it smoother on entry.

negative rear toe increases rotation (heavily), a huge benefit on entry and mid turn, but it can kill traction out of corners.
Positive rear toe kills rotation, but helps with stability

SPECIFIC CARS
All FWD cars will benefit from this as they don't need rear traction.
4WD will also benefit from this because of their great traction capabilities.
The Chaparral 2J is another car that needs huge amount of negative rear toe,
due to its fan system giving it traction.

GUIDE TO CAR TOE
Short rear toe guide:
FWD: -1.00
4WD -1.00 - -0.60
Stable RWD cars: -0.60 - 0.00
unstable RWD cars 0.00 - +0.30

Tune From Erazer
Brake balance: 5/7 with ABS on 1
Ride height: 75/55
Spring rate: 13.83/23.00
Dampers compression: 1/1
Dampers extension: 1/1
Anti-roll bars: 7/7
Camber angle: 0.0/0.0
Toe angle: -0.35/-0.15

Transmisson:
Set final gear to 3.850, then max speed to 200kmh.
1'st: 3.794
2'nd: 2.835
3'rd: 2.340
4'th: 1.965
5'th: 1.664
6'th: 1.412
Final gear: 2.650

Differential:
Initial torque: 5
Acceleration sensitivity: 13
Braking sensitivity: 9

Power:
No oil change
Engine Stage 3
Mid Rev Turbo

Body:
Downforce: 400/420

Wet Driving Guide
Settings that make driving a lot easier in the wet although not necessarily faster.

Moving the settings of the drivetrain to 5 5 5 to reduce wheel spin.

Also enabling Traction control makes the car hugely easier to drive in the wet.


Driving & Track Conditions %

The track wet % indicator is only relevant to the darker rubbered in racing line on the track.

When rain starts and the indicator shows 0% it will still be wet offline.

After rain ends and the indicator shows 0% it will still be wet offline for several laps.

In the dry with dry tyres the best grip is on the darker racing line on the track.

In the wet with dry tyres the best grip is still on the darker racing line on the track.

In the wet with Rain tyres the best grip is off the darker racing line on the track.

As a general guide.
Dry tyres work from 0% to 25%
Inters best working range from 10% to 55%
Heavy wets best working range from 55% to 100%

AUGS SETUP LEXUS SC430 GT500
92 88
11.80 19.00
1 3
1 1
7 7
0.0 0.0
0.00 0.00

brakes 5 7

gears : default >>> 200 km/h (min.) (1st - 6th)
3.885
2.849
2.370
2.040
1.704
1.446
final gear 2.450 or 2.550 can't remember

Lsd : 5 / 12 / 5

Donwnforce : 400 500

no chassis reinforcement

here's the one i used at daytona

86 / 78
11.21 12.13
1 / 1
1 / 1
7 / 7
0.0 0.0
0.00 0.00

brakes 7 / 6

almost the same gears as above but longer final gear ..

Lsd : 5 / 10 / 5

Downforce : 300 / 390

AUGS SETUP NISSAN GT-R GT500
65 50
11.21 12.13
1 1
1 1
7 7
0.0 0.0
0.00 0.00

brakes 5 8


gears : default >>> 200 kmH (1st-6th)
4401
3227
2640
2215
1880
1637
final gear : 2300

Lsd : 5 13 5

downforce : 400 400

AUGS SETUP HONDA HSV GT500
68 52
11.21 12.13
4 4
4 5
7 7
0.0 0.0
-0.20 0.00

brakes 6 - 8

gears : default >>> 240 kmH (min.) (1st to 6th)
5.272
3.334
2.770
2.320
1.938
1.627
final gear to your liking , just like all the other setups ..

Lsd: 5 10 5

Downforce 400 550

JEJES SC430 TUNE

PASMS GT-R TUNE

PASMS HSV TUNE
 
Last edited:
3,866
United Kingdom
Essex UK
LOGICLINE
18: SPECS CHANGES AND OTHER SERIES UPDATES
01 11 2016 SPEC CHANGE
-------KG---BHP---PP--CAR--GROUP---DRIVER
------1100--540--598--GTR----G2-----JFROD52
------1100--520--593--430----G1-----PAULTHEGREATGOLF

NEW DRIVERS SPEC FROM 25 10 16
-KG---BHP---PP--CAR--GROUP---DRIVER
1100--570--604--HSV----G3-----PUR3DELETE
1100--550--600--GTR----G2-----MRRACINGLINE
1100--540--598--GTR----G2-----I_MAXX_PAIN_I

24-10-16 DRIVER SPEC CHANGE
-KG---BHP---PP--CAR--GROUP---DRIVER
1100--550--600--HSV----G3-----LOGICLINE
1100--550--600--GTR----G2-----LETS_PARTY-1611

11-10-16 DRIVER SPEC CHANGE
LETS_PARTY-1611 SPEC CHANGE
-KG---BHP---PP--CAR--GROUP---DRIVER
1100--550--600--HSV----G3-----LETS_PARTY-1611

05-10-2016 HANDICAP SPEC CHANGES
-KG---BHP---PP--CAR--GROUP---DRIVER
1100--570--604--HSV----G3-----GU1TAR3RICH

05-09-2016 HANDICAP SPEC CHANGES
-KG---BHP---PP--CAR--GROUP---DRIVER
1100--550--600--GTR----G2-----CRAZYJOHNISHERE

28-08-16 AMENDEMENT TO PACE CAR LAP
SPEED THROUGHOUT THE LAP 75 mph/ 120 kph

ALL CARS SHOULD TRY TO MAINTAIN 1 CAR LENGTH GAP

DRIVERS THAT FALL BEHIND MAY EXCEED THIS SPEED ONLY TO CATCH UP

GOING OVER THE START LINE ABSOLUTE MAX SPEED IS 75mph/120kph

EXCEEDING SPEED OVER THE LINE & USE TO GAIN ADVANTAGE
AND THEN PASSING ANOTHER DRIVER BEFORE TURN 1
-4 CHAMPIONSHIP POINTS WILL BE DEDUCTED

EXCESS SPEED OVER THE LINE X 3 IN A SEASON
WITHOUT PASSING ANOTHER DRIVER BEFORE TURN 1
-2 CHAMPIONSHIP POINTS WILL BE DEDUCTED

25-08-2016 HANDICAP SPEC CHANGES
NEW SPECS UNTIL FURTHER NOTICE

-KG---BHP---PP--CAR--GROUP---DRIVER
1100--570---604---HSV----G3-----T-n-T-2000
1100--570---604---HSV----G3-----DANNYB_2JZ
1100--570---604---HSV----G3-----GUEVEN-ZAPPELT
1100--550---600---GTR----G2-----JFROD52
1100--550---600---GTR----G2-----DELTAJULIETMIKE
1100--550---600---GTR----G2-----STRETCHY-

25-08-2016 RULES ADDED
7: ROLLING START PROCEDURE [ AMENDMENT ]
CARS ON PACE LAPS NOW TO HAVE A 1 CAR LENGTH GAP

21-08-2016 ADMIN CHANGES
ADDED TO OFFICIALS

PSN: GTRP_Mirial GTP: @mirial

16-08-2016 HANDICAP SPEC CHANGES
NEW SPECS
G---BHP---PP--CAR--GROUP---DRIVER

1100--520--593--GTR----G2-----DANNYB013

1100--520--593--GTR----G2-----IRT_NISSMANR32

KG---BHP---PP--CAR--GROUP---DRIVER
1100--560--602--HSV----G3-----ALL G3 DRIVERS

10-08-2016 RULES ADDED
RACE RAGE QUIT WILL RESULT IN LOSS OF 1 DROPPED SCORE
RACE NO SHOW WILL RESULT IN LOSS OF 1 DROPPED SCORE

09-08-2016 HANDICAP SPEC CHANGES
NEW SPECS
--KG---BHP---PP--CAR--GROUP---DRIVER
1125--520--593--430----G1-----AUGHABLO
1125--520--593--430----G1-----TRL_ERAZER
1125--520--593--430----G1-----PAULTHEGREATGOLF

02-08-2016 HANDICAP ADJUSTMENTS MADE
NEW SPECS
--KG---BHP---PP--CAR--GROUP---DRIVER
1120--520--593--430----G1-----AUGHABLO
1120--520--593--430----G1-----TRL_ERAZER
1100--525--594--GTR----G2-----TNR_FILO
1100--525--594--GTR----G2-----DANNYB013
 
Last edited:
3,866
United Kingdom
Essex UK
LOGICLINE
19: DRIVERS ABSENT FROM RACES
RACE 01 -
RACE 02 -
RACE 03 - MONKEYWALL
RACE 04 - PAULTHEGREATGOLF
RACE 05 - PAULTHEGREATGOLF - CRAZYJOHNISHERE - GU1TAR3RICH
RACE 06 - GU1TAR3RICH - DELTAJULIETMIKE - JFROD52
RACE 07 -
RACE 08 -
RACE 09 - JFROD52
RACE 10 -
RACE 11 -
RACE 12 -
RACE 13 -
RACE 14 -
RACE 15 -
RACE 16 -
 
Last edited:
3,866
United Kingdom
Essex UK
LOGICLINE
20: RACE DIRECTORS COPY/PASTE NOTES
LIVE OBSERVED QUALIFYING FOR RACE 16 - OPEN

- CLOSES 18:00 UK SUNDAY -

- MON 7 NOV - WEATHER RACE

Circuit de Spa-Francorchamps

4.35 miles Forward weather/time variable
Race starts at game time 12:00

------------------------------------------------------------​

QUALY SETTINGS
Weather 50%
Time 12.00
Time progression X1
Weather changeability FIXED
Surface water at start 50%

RACE SETTINGS

Weather 50%
Time 12.00
Time progression X1
Weather changeability X15
Surface water at start 10%


QUALY DETAILS
QUALY
EACH DRIVER GETS ONLY 1 OFFICIAL ATTEMPT DECLARED BEFORE THE SESSION

Deadline for qualifying is 18:00 Uk Sundays prior to race.
Driving in the reverse direction voids the current lap and the following lap.
Officials Qualifying must be observed by other officials.
Unqualified Drivers will start at the back in descending championship points order.

-----------------------

Qualifying Observering Officials
PSN: Logicline GTP: @Stephen Vann
PSN: IRT_NissmanR32 GTP: @nissman
PSN: DannyB_2jz GTP: @Danny Burke
PSN: DannyB013 GTP: @DannyB013
PSN: Gueven-zappelt GTP : @Gueven Art
PSN: Daniel1990-25 GTP: @Daniel199025
PSN: Gu1tar3rich GTP: @richroo
PSN: GTRP_Mirial GTP: @mirial
PSN: IRT_ColossosR33 GTP: @andp132
PSN: AUGHABLO GTP: @DrAug

Post in this thread to book your Live observed Qualifying - Closes 18:00 UK Sundays

-----------------------

CARS & SPECS

ALL GROUPS
Tyre's: RH or less
Nitrous: Prohibited
Vehicle Tuning: Allowed
Skid Recovery force: Prohibited
Active steering: Prohibited
Active Stability Management ASM: Available
Driving Line: Available
Traction control: Availablle
ABS: Available

-----------------------

GROUP 3 CAR SPECS
HONDA HSV-010 GT Base Model '12
OIL CHANGE - NO STAGE TUNE - MID TURBO ONLY
MAX PP 602 PP - UNLESS HANDICAPPED
Max Power Limit 560Bhp - UNLESS HANDICAPPED
Weight 1100 Kg - UNLESS HANDICAPPED

----------------------

GROUP 2 CAR SPECS
NISSAN GT-R GT500 Base Model '08
OIL CHANGE - NO STAGE TUNE - MID TURBO ONLY
MAX PP 598PP - UNLESS HANDICAPPED
Max Power Limit 540 Bhp - UNLESS HANDICAPPED
Weight 1100 Kg - UNLESS HANDICAPPED

-----------------------

GROUP 1 CAR SPECS -
LEXUS SC430 GT500 BASE MODEL 08
OIL CHANGE - NO STAGE TUNE - MID TURBO ONLY
Max PP 595PP - UNLESS HANDICAPPED
Max Power Limit 520 Bhp - UNLESS HANDICAPPED
Weight 1100 Kg - UNLESS HANDICAPPED

-----------------------

ROOM & TRACK SETTINGS

ROOM SETTINGS
Room mode : Practice/Race
Room Privacy : Club Only
Room Comment : QUALY IN PROGRESS NO MESSAGING
Race Quality : 3 stars
Voice Chat : Disabled
Fixed Room Ownership : No
Max No of Participants : 16

RACE SETTINGS
Hold Events Automatically : Disabled
Start Type : Grid Start
Grid Order : Fastest First
Boost : Off
Penalty : None
Tyre/Fuel Depletion : Normal
Grip Reduction Wet Track/Edge : Real
Min No of Pitstops : 0
Required Tyre Change : Off
Visible Damage : Off
Mechanical Damage : Light
Slipstream Strength : Real

CAR SELECTION METHOD
Car Selection Method : Garage
Car Filters : Filter by Manufacturer
Country : Japan
Manufactures : Honda Lexus Nissan

FILTER BY PERFORMANCE
PP Limit : 604
Max Power Limit : 570 Bhp
Minimum Weight : 1100Kg
Drivetrain : All
Tyres : Racing Hard or Less
Nitrous : Prohibited
Vehicle Tuning : No Limit

LIMIT DRIVING OPTIONS
Skid Force Recovery : Prohibited
Active Steering : Prohibited
Active Stability Management ASM : Available
Driving Line : Available
Traction Control : Available
ABS : Available

-----------------------

QUALIFYING PROCEDURE
After arranging with an official either on the thread or on PS3
the official will create a room with the exact settings above.
He will ensure the car spec is correct.
He will then allow only the Q driver to enter pitbox.

He will start the 5 Lap Race
LAP 1 WARM UP LAP
LAP2 - LAP 3 - LAP 4 - INDIVIDUALLY TIMED FLYING LAPS
5TH LAP SLOW DOWN LAP.

THE OFFICIAL MUST
OBSERVE THE DRIVER THROUGHOUT THE FLYING LAPS
NOTE DOWN ANY TRACK LIMITS VIOLATIONS FOR EACH LAP
SAVE THE REPLAY IN CASE OF DISPUTE
ADD PENALTY TIME FOR EACH TRACK LIMIT VIOLATIONS PER LAP
POST THE BEST LAP FOR THE DRIVER ON THE FORUM
OTHER CLUB DRIVERS MAY BE PRESENT THROUGH THE SESSION
NO IN GAME MESSAGES THROUGHOUT THE WHOLE SESSION FROM ANYONE

Track Limits Time penalties

Each time per lap out of track limits -
incurs 1 second addition to time.

Each time per lap clearly more than a car width out of track limits -
incurs 2.5 sec addition to time.

Drivers who Q first with the same time take preference

--------------------------------
QUALIFYING TIMES POSTED

Q--TIME-----P---PTS--------KG---BHP---PP--CAR--GROUP---DRIVER


^
^
^
^
^

DRIVERS YET TO QUALIFY
Q--TIME-----P----PTS--------KG---BHP---PP--CAR--GROUP---DRIVER

0:00.000
0:00.000
0:00.000
0:00.000
0:00.000
0:00.000
0:00.000
0:00.000
0:00.000
0:00.000
0:00.000
0:00.000
0:00.000
0:00.000
0:00.000
0:00.000
0:00.000
0:00.000
0:00.000
0:00.000
0:00.000
0:00.000
0:00.000
0:00.000

-------------------------------------------------------------------

FINAL GRID
01 -
02 -
03 -
04 -
05 -
06 -
07 -
08 -
09 -
10 -
11 -
12 -
13 -
14 -
15 -
16 -
------------------------------------------------------------------
UNQUALIFIED
------------------------------------------------------------------
17 -
18 -
19 -
20 -
21 -
22 -
23 -
24 -
 
Last edited:
279
United Kingdom
United Kingdom
I'm in sod it who am I kidding saying I'm not going to participate in the series until GtSport loool... I might not be able to attend all races tho but I will try to start an hour later on the Monday's that I am working so that I can try too...

#23 - Car Black...
 
3,866
United Kingdom
Essex UK
LOGICLINE
if i were to sign up what car would i have to drive?
Filo, are you as fast as Nissman ?

if i were to sign up what car would i have to drive?

THE SLOWEST GUYS DRIVE
GROUP 3 CAR SPECS -

HONDA HSV-010 GT Base Model '12
OIL CHANGE - NO STAGE TUNE - MID TURBO ONLY
MAX PP 600 PP - Max Power Limit 550Bhp - Limiter 88.0%
Weight 1100 Kg unless ballasted

THE MEDIUM SPEED GUYS DRIVE
GROUP 2 CAR SPECS -

NISSAN GT-R GT500 Base Model '08OIL CHANGE - NO STAGE TUNE - MID TURBO ONLY
MAX PP 598PP - Max Power Limit 540 Bhp - Limiter 92.4%
Weight 1100 Kg unless ballasted

THE FASTEST GUYS DRIVE
GROUP 1 CAR SPECS -

LEXUS SC430 GT500 BASE MODEL 08OIL CHANGE - NO STAGE TUNE - MID TURBO ONLY
Max PP 595PP - Max Power Limit 520 Bhp - Limiter 89.9%
Weight 1100 Kg unless ballasted

---------------------------------------------------------------------------

There will be a committee that looks at results and can request a driver
move to another car/group
carry ballast
reduce bhp

We know that at some tracks certain cars will have an advantage, and also some drivers are better
at certain tracks, however the important thing is it is fair for all.
So the stewards committee will look at results and make decisions as they see fit.

For everyone's sake we want there to be close, fair racing with all a chance to win.

We know it is impossible to match every driver like for like, at each track, but we do try.

We have just finished a great series that had some great races.
 
Last edited:
1,721
Philippines
Catching You
TNR_FILO
Filo, are you as fast as Nissman ?


THE SLOWEST GUYS DRIVE
GROUP 3 CAR SPECS -

HONDA HSV-010 GT Base Model '12
OIL CHANGE - NO STAGE TUNE - MID TURBO ONLY
MAX PP 600 PP - Max Power Limit 550Bhp - Limiter 88.0%
Weight 1100 Kg unless ballasted

THE MEDIUM SPEED GUYS DRIVE
GROUP 2 CAR SPECS -

NISSAN GT-R GT500 Base Model '08OIL CHANGE - NO STAGE TUNE - MID TURBO ONLY
MAX PP 598PP - Max Power Limit 540 Bhp - Limiter 92.4%
Weight 1100 Kg unless ballasted

THE FASTEST GUYS DRIVE
GROUP 1 CAR SPECS -

LEXUS SC430 GT500 BASE MODEL 08OIL CHANGE - NO STAGE TUNE - MID TURBO ONLY
Max PP 595PP - Max Power Limit 520 Bhp - Limiter 89.9%
Weight 1100 Kg unless ballasted

---------------------------------------------------------------------------

There will be a committee that looks at results and can request a driver
move to another car/group
carry ballast
reduce bhp

We know that at some tracks certain cars will have an advantage, and also some drivers are better
at certain tracks, however the important thing is it is fair for all.
So the stewards committee will look at results and make decisions as they see fit.

For everyone's sake we want there to be close, fair racing with all a chance to win.

We know it is impossible to match every driver like for like, at each track, but we do try.

We have just finished a great series that had some great races.

it's dependant on car and settings, judging by the WRS GT300 and his own GT500 series. i would say he's faster in GT500's (they're his bread and butter) :lol:. i think i'll best suit Group 2
 
1,104
Ireland
up a tree
monkeywall
Hey guys I'm new to all this and looking to get tested to see what car I should use. @Stephen Vann thinks I should try the HSV as I had a quick go with all cars and managed 1:20's, R/H 30 mins each with a little tuning tranny mostly. no where near race setup.

I have an ivite to the club and plan to be there around 6pm (UK) this evening will bring the HSV If any of you could help me out it would be great 👍

Race No. 35, Yellow (Banana - seems to suit :lol:)
 
2,455
Greece
Thessaloniki, Macedonia, Greece
VLX_CJohn
CrazyJohnIsHere ////////// GT POLARISED and then some random numbers (it's silver)
Number @%
 
3,866
United Kingdom
Essex UK
LOGICLINE
if i'm slow enough i'll join but i'm bored of driving the Lexus.
is there a way of grading the driver?

Only by laptimes and results.
Each week most of us spend time in the club lobby [ set to public ] working on setup and having little races of between 30 mins to 60 mins.
By the time we get to Monday nights most of us have done hundreds of laps.
Mostly you will find the slower drivers need more practice.

In the end we only want fair close races.
We dont want to anyone to be winning every race and runnning away with the points,
we like each race to be a battle as you would expect.
If anyone is too fast or too slow then we can adjust things for them.

We do have some in the slower group that maybe very fast over a single lap, but on race nights
can never get through 90 minutes without several crashes, so although they are fast, they are in the slower group.

We generally would look at the championship points to see if anyone is running away with the series,
more than we look at single laptimes, but everything is done to keep everything as close as poss.

I shall be on for a couple of hours shortly.
 
Last edited: